|  
 
:  
  : :  
      ?    

  |

akords.org » B » Blind Guardian » And Then There Was Silence

Blind Guardian - And Then There Was Silence 

#----------------------------------PLEASE NOTE---------------------------------#
#This file is the author's own work and represents their interpretation of the #
#song. You may only use this file for private study, scholarship, or research. #
#------------------------------------------------------------------------------#

AND THEN THERE WAS SILENCE
As recorded by Blind Guardian
(From the 2002 Album A NIGHT AT THE OPERA)


Transcribed by Fear Fex

Words by Hansi Krsch Music by Olbrich & Krsch



Gtr I (E A D G B E) - 'Andr Olbrich'
Gtr II (E A D G B E) - 'Studio Layers'
Gtr III (E A D G B E) - 'Marcus Siepen'


Intro
Q=68
A5 A5
4/4
Gtr I
Q. S S E E E E Q Q Q Q Q. S S E E E E Q Q Q Q
|------------0-5-7-|--6b8--7--5-----|------------0-5-7-|--6b8--7--8b10------|
|------------------|-------------6--|------------------|----------------10--|
|-2----2-4-5-------|----------------|-2----2-4-5-------|--------------------|
|------------------|----------------|------------------|--------------------|
|------------------|----------------|------------------|--------------------|
|------------------|----------------|------------------|--------------------|
|
| Gtr III
| W +W W +W
|------------------|----------------|------------------|--------------------|
|------------------|----------------|------------------|--------------------|
|------------------|----------------|------------------|--------------------|
|-7----------------|-(7)------------|-7----------------|-(7)----------------|
|-7----------------|-(7)------------|-7----------------|-(7)----------------|
|-5----------------|-(5)------------|-5----------------|-(5)----------------|


A5 A5
Q. S S E E E E E S S E S S E S S E E Q. S S E E E E
|------------------|-----13---13-12---12-10---10-12-|------------------|
|------------3-----|--------------------------------|------------3-----|
|-2----2-4-5---2-4-|--------------------------------|-2----2-4-5---2-4-|
|------------------|--------------------------------|------------------|
|------------------|--------------------------------|------------------|
|------------------|--------------------------------|------------------|
|
| Gtr II
| W E S S E S S E S S E E W
|------------------|-----10---10--8----8--7----7--8-|------------------|
|------------------|--------------------------------|------------------|
|------------------|--------------------------------|------------------|
|------------------|--------------------------------|------------------|
|------------------|--------------------------------|------------------|
|------------------|--------------------------------|------------------|
|
| Gtr III
| W +W W
|------------------|--------------------------------|------------------|
|------------------|--------------------------------|------------------|
|------------------|--------------------------------|------------------|
|-7----------------|-(7)----------------------------|-7----------------|
|-7----------------|-(7)----------------------------|-7----------------|
|-5----------------|-(5)----------------------------|-5----------------|


E S S E S S E S S E E
|-----13---13-12---12-10---10-12-|
|--------------------------------|
|--------------------------------|
|--------------------------------|
|--------------------------------|
|--------------------------------|
|
| E S S E S S E S S E E
|-----10---10--8----8--7----7--8-|
|--------------------------------|
|--------------------------------|
|--------------------------------|
|--------------------------------|
|--------------------------------|
|
| +W
|--------------------------------|
|--------------------------------|
|--------------------------------|
|-(7)----------------------------|
|-(7)----------------------------|
|-(5)----------------------------|


E S S S S S S Q. T T T T E. E. E E Q.
|-----------5-7---6b8---7h8p5-3-|-5----------------|
|-------------------------------|----6b8-5-5-6-----|
|-3b5-5-4-2---------------------|------------------|
|-------------------------------|------------------|
|-------------------------------|------------------|
|-------------------------------|------------------|
|
| W W
|-------------------------------|------------------|
|-------------------------------|------------------|
|-------------------------------|------------------|
|-------------------------------|------------------|
|-------------------------------|------------------|
|-------------------------------|------------------|
|
| W W
|-------------------------------|------------------|
|-------------------------------|------------------|
|-------------------------------|------------------|
|-------------------------------|------------------|
|-------------------------------|------------------|
|-------------------------------|------------------|


E S S S S S S Q. T T T T E. E. E E Q.
|-----------5-7-6b8---7h8p5-3-|-5--8b10-8-7-8-----|
|---------5-------------------|-------------------|
|-2-2-4-5---------------------|-------------------|
|-----------------------------|-------------------|
|-----------------------------|-------------------|
|-----------------------------|-------------------|
|
| Gtr III
| W W
|-----------------------------|-------------------|
|-----------------------------|-------------------|
|-----------------------------|-------------------|
|-----------------------------|-------------------|
|-----------------------------|-------------------|
|-----------------------------|-------------------|


Interlude
E5/B D5/A E5/B
|-3-| |-3-|
T T E T T E S S E E E E E E
|-----------------------------------|
|-5h6-5---3p1-3----1-3-5-0----------|
|--------------------------3-2-0----|
|--------------------------------4--|
|-----------------------------------|
|-----------------------------------|
|
| S S S S S E. H
|-----------------------------------|
|-----------------------------------|
|-4---4---2---2--------4------------|
|-2---2---0---0--------2------------|
|-2---2---0---0--------2------------|
|-----------------------------------|


E5/B D5/A E5/B E5/B D5/A E5/B
|-3-| |-3-|
T T E T T E S S E E E E E E T T E T T E S S T T T T T T T T Q
|----------------------------------|-7h8-7---5p3-5----3-2-0-2-3h5-3h5-3-2-3---|
|-5h6-5---3p1-3----1-3-5-0---------|------------------------------------------|
|--------------------------3-2-0---|------------------------------------------|
|--------------------------------4-|------------------------------------------|
|----------------------------------|------------------------------------------|
|----------------------------------|------------------------------------------|
|
| Gtr II
| W T T E T T E S S T T T T T T T T Q
|----------------------------------|------------------------------------------|
|----------------------------------|-5h6-5---3p1-3----1-3-1-3-5h7-5h7-5-3-5---|
|----------------------------------|------------------------------------------|
|----------------------------------|------------------------------------------|
|----------------------------------|------------------------------------------|
|----------------------------------|------------------------------------------|
|
| Gtr III
| S S S S S E. H S S S S S E. H
|----------------------------------|------------------------------------------|
|----------------------------------|------------------------------------------|
|-4---4---2---2--------4-----------|-4---4---2---2--------4-------------------|
|-2---2---0---0--------2-----------|-2---2---0---0--------2-------------------|
|-2---2---0---0--------2-----------|-2---2---0---0--------2-------------------|
|----------------------------------|------------------------------------------|


E5/B D5/A E5/B D5C5/GA5
T T E T T E S S T T T T T T T T Q
|-7h8-7---5p3-5----3-2-0--2-3h5-3h5-3-2-3-----|
|---------------------------------------------|
|---------------------------------------------|
|---------------------------------------------|
|---------------------------------------------|
|---------------------------------------------|
|
| T T E T T E S S T T T T T T T T Q
|---------------------------------------------|
|-5h6-5---3p1-3----1-3-1--3-5h7-5h7-5-3-5-----|
|---------------------------------------------|
|---------------------------------------------|
|---------------------------------------------|
|---------------------------------------------|
|
| S S S S S E. Q. S S
|---------------------------------------------|
|---------------------------------------------|
|-4---4---2---2--------4----------------------|
|-2---2---0---0--------2------------------7-5-|
|-2---2---0---0--------2------------------5-3-|
|-----------------------------------------5-3-|


F5 E5 D5 A5 F5 G5 E5
Q. T T T T Q. T T T T
|-8------------------7h8p7-5-8------------------7h8p7-5---|
|---------------------------------------------------------|
|---------------------------------------------------------|
|---------------------------------------------------------|
|---------------------------------------------------------|
|---------------------------------------------------------|
|
| W
|---------------------------------------------------------|
|---------------------------------------------------------|
|---------------------------------------------------------|
|---------------------------------------------------------|
|---------------------------------------------------------|
|---------------------------------------------------------|
|
| T T S S T T S T T S S T T S S T T S T T S S
|---------------------------------------------------------|
|---------------------------------------------------------|
|----------------5-5-4---2------------------5-5-7---4-----|
|-2--2-2---2-2-2-3-3-2---0---2--2-2---2-2-2-3-3-5---2-----|
|-0--0-0---0-0-0-------------0--0-0---0-0-0---------------|
|---------------------------------------------------------|


F5 C5 F5 G5 E5 F5 C5 F5 G5E5
Q. T T T T S Q E.
|-------------------------------------------------|
|-6------------------6h8p6-5-5--------------------|
|--------------------------------5---------7------|
|-------------------------------------------------|
|-------------------------------------------------|
|-------------------------------------------------|
|
| W
|-------------------------------------------------|
|-------------------------------------------------|
|-------------------------------------------------|
|-------------------------------------------------|
|-------------------------------------------------|
|-------------------------------------------------|
|
| T T S S T T S T T S S T T S S T T S S S S
|-------------------------------------------------|
|-------------------------------------------------|
|-5--5-----------5-5-7---4---5-5-----------5--7-4-|
|-3--3-5---5-5-5-3-3-5---2---3-3-5---5-5-5-3--5-2-|
|------3---3-3-3-----------------3---3-3-3--------|
|-------------------------------------------------|


A5 F5 E5 D5 A5 F5 G5 E5
Q. T T T T Q. T T T T
|-12------------------10h12p10--8-12------------------10h12p10--8-|
|-----------------------------------------------------------------|
|-----------------------------------------------------------------|
|-----------------------------------------------------------------|
|-----------------------------------------------------------------|
|-----------------------------------------------------------------|
|
| Q. T T T T Q. T T T T
|-----------------------------------------------------------------|
|-13------------------12h13p12-10-13------------------12h13p12-10-|
|-----------------------------------------------------------------|
|-----------------------------------------------------------------|
|-----------------------------------------------------------------|
|-----------------------------------------------------------------|
|
| T T S S T T S T T S S T T S S T T S T T S S
|-----------------------------------------------------------------|
|-----------------------------------------------------------------|
|-----------------5-5--4-----2--------------------5-5--7-----4----|
|--2--2-2---2-2-2-3-3--2-----0-----2--2-2---2-2-2-3-3--5-----2----|
|--0--0-0---0-0-0------------------0--0-0---0-0-0-----------------|
|-----------------------------------------------------------------|


F5 C5 F5 G5 E5 F5 C5 F5G5E5
Q +S T T S S S Q. S
|--8------------(8)-12h13-15-13-12---8--------------7-|
|-----------------------------------------------------|
|-----------------------------------------------------|
|-----------------------------------------------------|
|-----------------------------------------------------|
|-----------------------------------------------------|
|
| Q +S E. H
|-----------------------------------------------------|
|-10-----------(10)-----------------------------------|
|-----------------------------------------------------|
|-----------------------------------------------------|
|-----------------------------------------------------|
|-----------------------------------------------------|
|
| T T S S T T S T T S S T T S S T T S S S S
|-----------------------------------------------------|
|-----------------------------------------------------|
|--5-5---------------5--5--7--4--5-5------------5-7-4-|
|--3-3-5---5-5---5---3--3--5--2--3-3-5----5-5-5-3-5-2-|
|------3---3-3---3-------------------3----3-3-3-------|
|-----------------------------------------------------|


C5 G5 A5
T T E T T E S S T T T T T T T T Q
|-12h13-12-10p=8-10--8-7-5-7--8h10--8h10--8-7--8---|
|--------------------------------------------------|
|--------------------------------------------------|
|--------------------------------------------------|
|--------------------------------------------------|
|--------------------------------------------------|
|
| T T E T T E S S T T T T T T T T Q
|--------------------------------------------------|
|-13h15-13-12p10-12-10-8-6-8-10h12-10h12-10-8-10---|
|--------------------------------------------------|
|--------------------------------------------------|
|--------------------------------------------------|
|--------------------------------------------------|
|
| Q Q H
|--------------------------------------------------|
|--------------------------------------------------|
|--5---------------------2-------------------------|
|--5--------------5------2-------------------------|
|--3--------------5------0-------------------------|
|-----------------3--------------------------------|


C5 G5 A5
T T E T T E S S T T T T T T T T Q
|-12h13-12-10p=8-10--8-7-5-7--8h10--8h10--8-7--8--|
|-------------------------------------------------|
|-------------------------------------------------|
|-------------------------------------------------|
|-------------------------------------------------|
|-------------------------------------------------|
|
| T T E T T E S S T T T T T T T T Q
|-------------------------------------------------|
|-13h15-13-12p10-12-10-8-6-8-10h12-10h12-10-8-10--|
|-------------------------------------------------|
|-------------------------------------------------|
|-------------------------------------------------|
|-------------------------------------------------|
|
| Q Q H
|-------------------------------------------------|
|-------------------------------------------------|
|--5---------------------2------------------------|
|--5--------------5------2------------------------|
|--3--------------5------0------------------------|
|-----------------3-------------------------------|


C5 G5 A5
T T E T T E S S T T T T T T T T Q
|-12h13-12-10p=8-10--8-7-5-7--8h10--8h10--8-7--8---|
|--------------------------------------------------|
|--------------------------------------------------|
|--------------------------------------------------|
|--------------------------------------------------|
|--------------------------------------------------|
|
| T T E T T E S S T T T T T T T T Q
|--------------------------------------------------|
|-13h15-13-12p10-12-10-8-6-8-10h12-10h12-10-8-10---|
|--------------------------------------------------|
|--------------------------------------------------|
|--------------------------------------------------|
|--------------------------------------------------|
|
| Q Q H
|--------------------------------------------------|
|--------------------------------------------------|
|--5---------------------2-------------------------|
|--5--------------5------2-------------------------|
|--3--------------5------0-------------------------|
|-----------------3--------------------------------|


C5 G5 A5 D5 E5C5
T T E T T E S S T T T T T T T T Q E E S S S S E. S Q
|-12h13-12-10p=8-10--8-7-5-7--8h10--8h10--8-7--8--|----------------------------------6-5---|
|-------------------------------------------------|-------3-----5-------6-------8b10-------|
|-------------------------------------------------|-----------------2-------2--------------|
|-------------------------------------------------|----------------------------------------|
|-------------------------------------------------|----------------------------------------|
|-------------------------------------------------|----------------------------------------|
|
| T T E T T E S S T T T T T T T T Q W
|-------------------------------------------------|----------------------------------------|
|-13h15-13-12p10-12-10-8-6-8-10h12-10h12-10-8-10--|----------------------------------------|
|-------------------------------------------------|----------------------------------------|
|-------------------------------------------------|----------------------------------------|
|-------------------------------------------------|----------------------------------------|
|-------------------------------------------------|----------------------------------------|
|
| |-3-| |-3-| |--3--| |--3--|
| Q Q H S S S S S S S S S S S S Q E E
|-------------------------------------------------|----------------------------------------|
|-------------------------------------------------|----------------------------------------|
|--5---------------------2------------------------|-2-----2-2-2-2-------2-2---2-2------4---|
|--5--------------5------2------------------------|-0-----0-0-0-0-------0-0---0-0------2-5-|
|--3--------------5------0------------------------|--------------------------------------3-|
|-----------------3-------------------------------|----------------------------------------|


D5 E5C5
+E S S S S S S E. X X T Q
|-(5)--------------------------------------------------|
|------------------------------------------------------|
|---------7-------9-------10-------12--10h12p10-9------|
|-------------7-------7--------7-----------------------|
|------------------------------------------------------|
|------------------------------------------------------|
|
| W
|------------------------------------------------------|
|------------------------------------------------------|
|------------------------------------------------------|
|------------------------------------------------------|
|------------------------------------------------------|
|------------------------------------------------------|
|
| |-3--| |--3--| |--3--| |--3--|
| S S S S S S S S S S S S Q E E
|------------------------------------------------------|
|------------------------------------------------------|
|--2------2-2---2-2--------2-2---2--2-----------4------|
|--0------0-0---0-0--------0-0---0--0-----------2-5----|
|-------------------------------------------------3----|
|------------------------------------------------------|


D5 E5C5
E E S S S S E. S Q
|-----------------------------------6-5---|
|------------------------------8b10-------|
|-------7-----9-------10------------------|
|-----------------7--------7--------------|
|-----------------------------------------|
|-----------------------------------------|
|
| Gtr III
| |-3-| |-3-| |--3--| |--3--|
| S S S S S S S S S S S S Q E E
|-----------------------------------------|
|-----------------------------------------|
|-2-----2-2-2-2--------2-2---2-2------4---|
|-0-----0-0-0-0--------0-0---0-0------2-5-|
|---------------------------------------3-|
|-----------------------------------------|


D5 E5C5
+E S S S S S S E. X X T Q
|-(5)------------------------------------------------|
|----------------------------------------------------|
|---------7-------9-------10-------12--10h12p10-9----|
|-------------7-------7------------------------------|
|------------------------------0---------------------|
|----------------------------------------------------|
|
| |-3--| |--3--| |--3--| |--3--|
| S S S S S S S S S S S S Q E E
|----------------------------------------------------|
|----------------------------------------------------|
|--2------2-2---2-2--------2-2---2--2-----------4----|
|--0------0-0---0-0--------0-0---0--0-----------2-5--|
|-------------------------------------------------3--|
|----------------------------------------------------|


A5 Bb5 G5Bm A5Bb5 G5A5G5 F5A5BbG5BmA5Bb5 G5A5G5F5
T T T T E E E Q E E
|------------------------------6-----------5---------|
|-10h11p10-8-10-----8-----10---------------------6---|
|----------------------------------------------------|
|----------------------------------------------------|
|----------------------------------------------------|
|----------------------------------------------------|
|
| Gtr II
| T T T T E E E Q E E
|----------------------------------------------------|
|------------------------------6-----------5---------|
|--9h10p=9-7--9-----7------9---------------------5---|
|----------------------------------------------------|
|----------------------------------------------------|
|----------------------------------------------------|
|
| Gtr III
| T S T S T S T S S S T S T S T S T S S S
|----------------------------------------------------|
|----------------------------------------------------|
|----------------------------------------------------|
|----------------------------------------------------|
|--7--8----5--5-7-8---5-7--5-3-7-8-5-5-7-8---5-7-5-3-|
|--5--6----3--7-5-6---3-5--3-1-5-6-3-7-5-6---3-5-3-1-|


T T T T E E E S T T S T T T T T T S S
|-5h6p5-3-5-----3-----5---6---5-3-9-6-5-10-8-6-8-10--0--|
|-------------------------------------------------------|
|-------------------------------------------------------|
|-------------------------------------------------------|
|-------------------------------------------------------|
|-------------------------------------------------------|
|
| T T T T E E E S T T S T T T T T T S S
|-------------------------------------------------------|
|-5h6p5-3-5-----3-----5---6---5-3-9-6-5-10-8-6-8-10-12--|
|-------------------------------------------------------|
|-------------------------------------------------------|
|-------------------------------------------------------|
|-------------------------------------------------------|
|
| T S T S T S T S S S T S T S T S T S S S
|-------------------------------------------------------|
|-------------------------------------------------------|
|-------------------------------------------------------|
|-------------------------------------------------------|
|-7-8---5-5-7-8---5-7-5-3-7-8---5-5-7-8----5-7----5--3--|
|-5-6---3-7-5-6---3-5-3-1-5-6---3-7-5-6----3-5----3--1--|


Break
D5 C5Eb5
E T T T S. S T T T S. S T T S E E
|------------11---------------14---------------8-11-|
|-10-10-8-10-------10-10-8-10-------10-10-8-10------|
|---------------------------------------------------|
|---------------------------------------------------|
|---------------------------------------------------|
|---------------------------------------------------|
|
| E T T T S. S T T T S. S T T S E E
|---------------------------------------------------|
|-------------4----------------7------------------4-|
|--7--7-5--7--------7--7-5--7--------7--7-5--7-5----|
|---------------------------------------------------|
|---------------------------------------------------|
|---------------------------------------------------|
|
| E E Q Q E E
|---------------------------------------------------|
|---------------------------------------------------|
|--2-------------------------------------------5--8-|
|--0-------------------------------------------5--8-|
|----------------------------------------------3--6-|
|---------------------------------------------------|


D5 C5Eb5
E T T T S. S T T T S. S T T S E E
|------------11---------------14---------------8-11--|
|-10-10-8-10-------10-10-8-10-------10-10-8-10-------|
|----------------------------------------------------|
|----------------------------------------------------|
|----------------------------------------------------|
|----------------------------------------------------|
|
| E T T T S. S T T T S. S T T S E E
|----------------------------------------------------|
|-------------4----------------7------------------4--|
|--7--7-5--7--------7--7-5--7--------7--7-5--7-5-----|
|----------------------------------------------------|
|----------------------------------------------------|
|----------------------------------------------------|
|
| E E Q Q E E
|----------------------------------------------------|
|----------------------------------------------------|
|--7-------------------------------------------5--8--|
|--7-------------------------------------------5--8--|
|--5-------------------------------------------3--6--|
|----------------------------------------------------|


D5 C5Eb5
E T T T S. S T T T S. S T T S E E
|------------11---------------14---------------8-11-|
|-10-10-8-10-------10-10-8-10-------10-10-8-10------|
|---------------------------------------------------|
|---------------------------------------------------|
|---------------------------------------------------|
|---------------------------------------------------|
|
| E T T T S. S T T T S. S T T S E E
|---------------------------------------------------|
|-------------4----------------7------------------4-|
|--7--7-5--7--------7--7-5--7--------7--7-5--7-5----|
|---------------------------------------------------|
|---------------------------------------------------|
|---------------------------------------------------|
|
| E E Q Q E E
|---------------------------------------------------|
|---------------------------------------------------|
|--7-------------------------------------------5--8-|
|--7-------------------------------------------5--8-|
|--5-------------------------------------------3--6-|
|---------------------------------------------------|


D5 C5Eb5 D5 Eb5 C5 Bb5 A5
E T T T S. S T T T S. S T T S E E W
|------------11---------------14---------------8-11-|----------------------------------------------|
|-10-10-8-10-------10-10-8-10-------10-10-8-10------|----------------------------------------------|
|---------------------------------------------------|----------------------------------------------|
|---------------------------------------------------|----------------------------------------------|
|---------------------------------------------------|----------------------------------------------|
|---------------------------------------------------|----------------------------------------------|
|
| E T T T S. S T T T S. S T T S E E W
|---------------------------------------------------|----------------------------------------------|
|-------------4----------------7------------------4-|----------------------------------------------|
|--7--7-5--7--------7--7-5--7--------7--7-5--7-5----|----------------------------------------------|
|---------------------------------------------------|----------------------------------------------|
|---------------------------------------------------|----------------------------------------------|
|---------------------------------------------------|----------------------------------------------|
|
| E E Q Q E E S T T S T T T T S T T S S S S T T S S S S
|---------------------------------------------------|----------------------------------------------|
|---------------------------------------------------|----------------------------------------------|
|--7-------------------------------------------5--8-|-2-----2---------3-----3----------------------|
|--7-------------------------------------------5--8-|-0-0-0-0-0-0-0-0-1-1-1-1-1-5-5-----3-3-2------|
|--5-------------------------------------------3--6-|---------------------------3-3-3-3-1-1-0-0----|
|---------------------------------------------------|----------------------------------------------|


Bb5 D5 Eb5 F5 D5 Eb5 C5 Bb5
Gtr III
S S S S S S S S S S S S S S S S S S S S S S S S S S S S S S S S
|---------------------------------|---------------------------------|
|---------------------------------|---------------------------------|
|-----2---2-----3---3---5-5---5---|-----2---2-----3---3-------------|
|-3---0-0-0-0-0-1-1-1-1-3-3-3-3-1-|-0-1-0-0-0-0-0-1-1-1-1-5-5---3-3-|
|-1-0-----------------------------|-----------------------3-3-3-1-1-|
|---------------------------------|---------------------------------|


A5 Bb5 D5 Eb5 F5 F5 F5EbD5EbD5C5D5/A D5C5D5/A D5C5D5Eb5/Bb
S S S S S S S S S S S S S S S S S S S S S S S S T T T S. T T T S. T T T T
|---------------------------------|--------------------------------------------|
|---------------------------------|--------------------------------------------|
|---------2---2-----3---3---5-5---|-5-------5-3-2-3----------------------------|
|-2---3---0-0-0-0-0-1-1-1-1-3-3-3-|-3-1-0-1-3-1-0-1-7-5-7----7-5-7----7-5-7-8--|
|-0-0-1-0-------------------------|-----------------5-3-5----5-3-5----5-3-5-6--|
|---------------------------------|-----------------5-3-5----5-3-5----5-3-5-6--|


Interlude
D5C5D5/A D5C5D5/A D5G5D5Eb5/Bb
Gtr I
S T T T T T T T T T T T T T T H
|---5-3-10-6-5-3-6-5-3-1-5-3-1-0---------------------------|
|----------------------------------------------------------|
|----------------------------------------------------------|
|----------------------------------------------------------|
|----------------------------------------------------------|
|----------------------------------------------------------|
|
| Gtr III
| H T T T S. T T T S. T T T T
|----------------------------------------------------------|
|----------------------------------------------------------|
|----------------------------------------------------------|
|--------------------------------7-5-7----7-5-7----7-5-7-8-|
|--------------------------------5-3-5----5-3-5----5-5-5-6-|
|--------------------------------5-3-5----5-3-5----5-3-5-6-|


C5D5C5/G D5C5D5/A D5C5D5Eb5/Bb
S T T T T T T T T T T T T T T H
|---10-6-8-5-6-3-5-1-3-0--------------------------------------|
|------------------------6-3-5-1------------------------------|
|-------------------------------------------------------------|
|-------------------------------------------------------------|
|-------------------------------------------------------------|
|-------------------------------------------------------------|
|
| H T T T S. T T T S. T T T T
|-------------------------------------------------------------|
|-------------------------------------------------------------|
|-------------------------------------------------------------|
|--------------------------------5-7-5----7-5-7----7-5-7-8----|
|--------------------------------3-5-3----5-3-5----5-3-5-6----|
|--------------------------------3-5-3----5-3-5----5-3-5-6----|


C5D5C5/G D5C5D5/A D5C5D5Eb5/Bb
S T T T T T T T T T T T T T T H
|---6-5-10-8-6-5-8-6-5-3-6-5-3-1---------------------------|
|----------------------------------------------------------|
|----------------------------------------------------------|
|----------------------------------------------------------|
|----------------------------------------------------------|
|----------------------------------------------------------|
|
| Gtr II
| W
|----------------------------------------------------------|
|----------------------------------------------------------|
|----------------------------------------------------------|
|----------------------------------------------------------|
|----------------------------------------------------------|
|----------------------------------------------------------|
|
| Gtr III
| H T T T S. T T T S. T T T T
|----------------------------------------------------------|
|----------------------------------------------------------|
|----------------------------------------------------------|
|--------------------------------5-7-5----7-5-7----7-5-7-8-|
|--------------------------------3-5-3----5-3-5----5-3-5-6-|
|--------------------------------3-5-3----5-3-5----5-3-5-6-|


Break
D5 C5D5 Eb5 D5 C5D5 F5
S T T T T T T T T T T T T T T E T T T S. S T T T T
|---22-18-17-15-13-18-17-15-13-18-17-15-13-12------------11-------------13--|
|---------------------------------------------10-10-8-10-----10-10-8-10-----|
|---------------------------------------------------------------------------|
|---------------------------------------------------------------------------|
|---------------------------------------------------------------------------|
|---------------------------------------------------------------------------|
|
| S T T T T T T T T T T T T T T E T T T S. S T T T T
|---------------------------------------------------------------------------|
|---------------------------------------------------------4--------------6--|
|---19-------------15----------15--------------7--7-5--7------5--7-5--7-----|
|------20-19-17-15----19-17-15----19-17-15-14-------------------------------|
|---------------------------------------------------------------------------|
|---------------------------------------------------------------------------|
|
| H E T T T S. S T T T T
|---------------------------------------------------------------------------|
|---------------------------------------------------------------------------|
|----------------------------------------------7-------------------------5--|
|----------------------------------------------7--7-5--7--8---7--7-5--7--3--|
|----------------------------------------------5--5-3--5--6---5--5-3--5-----|
|---------------------------------------------------------------------------|


D5 C5D5 C5Eb5D5 C5D5 Eb5 D5 C5D5 F5
+S S T T S E E E T T T S. S T T T T
|-(13)------------8-11-10---------11-------------13-|
|------10-10-8-10---------10-8-10-----10-10-8-10----|
|---------------------------------------------------|
|---------------------------------------------------|
|---------------------------------------------------|
|---------------------------------------------------|
|
| +S S T T S E E E T T T S. S T T T T
|---------------------------------------------------|
|--(6)--------------------------------------------6-|
|-------7--7-5--7-5--8--7--7-5--7--8---7--7-5--7----|
|---------------------------------------------------|
|---------------------------------------------------|
|---------------------------------------------------|
|
| +S S T T S E E E T T T S. S T T T T
|---------------------------------------------------|
|---------------------------------------------------|
|--(5)--------------------------------------------5-|
|--(3)--7--7-5--7-5--8--7--7-5--7--8---7--7-5--7--3-|
|-------5--5-3--5-3--6--5--5-3--5--6---5--5-3--5----|
|---------------------------------------------------|


D5 C5D5 C5Eb5D5 C5D5 Eb5 D5 C5D5 F5
+S S T T S E E E T T T S. S T T T T
|-(13)------------8-11------------11-------------13--|
|------10-10-8-10------10-10-8-10-----10-10-8-10-----|
|----------------------------------------------------|
|----------------------------------------------------|
|----------------------------------------------------|
|----------------------------------------------------|
|
| +S S T T S E E E T T T S. S T T T T
|----------------------------------------------------|
|--(6)--------------------------------------------6--|
|-------7--7-5--7-5--8--7--7-5--7--8---7--7-5--7-----|
|----------------------------------------------------|
|----------------------------------------------------|
|----------------------------------------------------|
|
| +S S T T S E E E T T T S. S T T T T
|----------------------------------------------------|
|----------------------------------------------------|
|--(5)--------------------------------------------5--|
|--(3)--7--7-5--7-5--8--7--7-5--7--8---7--7-5--7--3--|
|-------5--5-3--5-3--6--5--5-3--5--6---5--5-3--5-----|
|----------------------------------------------------|


D5 C5 C5Eb5D5 C5D5 Eb5 D5 C5D5 F5
+S S T T S E E E T T T S. S T T T T
|-(13)------------8-11-10---------11-------------13-|
|------10-10-8-10---------10-8-10-----10-10-8-10----|
|---------------------------------------------------|
|---------------------------------------------------|
|---------------------------------------------------|
|---------------------------------------------------|
|
| +S S T T S E E E T T T S. S T T T T
|---------------------------------------------------|
|--(6)--------------------------------------------6-|
|-------7--7-5--7-5--8--7--7-5--7--8---7--7-5--7----|
|---------------------------------------------------|
|---------------------------------------------------|
|---------------------------------------------------|
|
| +S S T T S E E E T T T S. S T T T T
|---------------------------------------------------|
|---------------------------------------------------|
|--(5)--------------------------------------------5-|
|--(3)--7--7-5--7-5--8--7--7-5--7--8---7--7-5--7--3-|
|-------5--5-3--5-3--6--5--5-3--5--6---5--5-3--5----|
|---------------------------------------------------|


Orchestral Part
D5 C5D5 C5Eb5
+S S T T S E E H W
|-(13)------------8-11------|------|
|---------------------------|------|
|------10-10-8-10-----------|------|
|---------------------------|------|
|---------------------------|------|
|---------------------------|------|
|
| +S S T T S E E H W
|---------------------------|------|
|--(6)----------------------|------|
|-------7--7-5--7-5--8------|------|
|---------------------------|------|
|---------------------------|------|
|---------------------------|------|
|
| +S S T T S E E H W
|---------------------------|------|
|---------------------------|------|
|--(5)---------------3------|------|
|--(3)--7--7-5--7-5--1------|------|
|-------5--5-3--5-3---------|------|
|---------------------------|------|


W W W W
|----------|----------|----------|------|
|----------|----------|----------|------|
|----------|----------|----------|------|
|----------|----------|----------|------|
|----------|----------|----------|------|
|----------|----------|----------|------|


W W W W
|----------|----------|----------|------|
|----------|----------|----------|------|
|----------|----------|----------|------|
|----------|----------|----------|------|
|----------|----------|----------|------|
|----------|----------|----------|------|


W W W W
|----------|----------|----------|------|
|----------|----------|----------|------|
|----------|----------|----------|------|
|----------|----------|----------|------|
|----------|----------|----------|------|
|----------|----------|----------|------|


H S S E E E E E E E S S Q S S E E Q S S E E E
|------1-3-5--3-5-|--5--6-5-3-1---3-5--1---3-|--5--6-3---1-3-5--3-5-|
|-----------------|--------------------------|----------------------|
|-----------------|--------------------------|----------------------|
|-----------------|--------------------------|----------------------|
|-----------------|--------------------------|----------------------|
|-----------------|--------------------------|----------------------|
|
| Gtr III
| H S S Q. +H E Q E +Q E E S S Q.
|--------0-1------|-(1)-------------1--------|-------------0--------|
|------3----------|-----------3b5------4b6---|-(4)-----------6------|
|-----------------|--------------------------|-------5---7----------|
|-----------------|--------------------------|---------7------------|
|-----------------|--------------------------|----------------------|
|-----------------|--------------------------|----------------------|


F5
E E E E S S Q S S E E Q S S T T T T S E.
|--5--6-5-3-1---3-5--1---3-|--5--6-3--------------------------|
|--------------------------|-------------6-8h9-8h9-8-9--------|
|--------------------------|-----------5----------------------|
|--------------------------|----------------------------------|
|--------------------------|----------------------------------|
|--------------------------|----------------------------------|
|
| +H E Q E +Q E E S S S T T S S S T T
|-----------------1--------|----------------------------------|
|-(6)-------3b5------4b6---|-(4)------------------------------|
|--------------------------|-------5--------------------------|
|--------------------------|---------7------------------------|
|--------------------------|-----------3-3-3---3-3-3-3--3-3-3-|
|--------------------------|-----------1-1-1---1-1-1-1--1-1-1-|


S S T T T T S E. S S T T T T S E.
|------------------------------------------------|
|---6-8h9-8h9-8-6----------6-8h9-8h9-8-9---------|
|-5----------------------5-----------------------|
|------------------------------------------------|
|------------------------------------------------|
|------------------------------------------------|
|
| S S S T T S S S T T S S S T T S S S T T
|------------------------------------------------|
|------------------------------------------------|
|------------------------------------------------|
|------------------------------------------------|
|-3-3-3---3-3-3-3--3-3-3-3-3-3---3-3-3-3--3-3-3--|
|-1-1-1---1-1-1-1--1-1-1-1-1-1---1-1-1-1--1-1-1--|


S S T T T T S E. S S T T T T S E.
|-----9p8-9p8-6-8-------------------------------|
|---6----------------------6-8h9-8h9-8-9--------|
|-5----------------------5----------------------|
|-----------------------------------------------|
|-----------------------------------------------|
|-----------------------------------------------|
|
| S S S T T S S S T T S S S T T S S S T T
|-----------------------------------------------|
|-----------------------------------------------|
|-----------------------------------------------|
|-----------------------------------------------|
|-3-3-3---3-3-3-3--3-3-3-3-3-3---3-3-3-3--3-3-3-|
|-1-1-1---1-1-1-1--1-1-1-1-1-1---1-1-1-1--1-1-1-|


S S T T T T S E. S S T T T T S E.
|------------------------------------------------|
|---6-8h9-8h9-8-6----------6-8h9-8h9-8-9---------|
|-5----------------------5-----------------------|
|------------------------------------------------|
|------------------------------------------------|
|------------------------------------------------|
|
| S S S T T S S S T T S S S T T S S S T T
|------------------------------------------------|
|------------------------------------------------|
|------------------------------------------------|
|------------------------------------------------|
|-3-3-3---3-3-3-3--3-3-3-3-3-3---3-3-3-3--3-3-3--|
|-1-1-1---1-1-1-1--1-1-1-1-1-1---1-1-1-1--1-1-1--|


G#5 C#5
S S T T T T S E. E. E. T T T T
|-----9-8-9-8-6-8------------21b23--------------|
|---6--------------------14--------14h16-13h=14-|
|-5---------------------------------------------|
|-----------------------------------------------|
|-----------------------------------------------|
|-----------------------------------------------|
|
| S S S T T S S S T T E. Q +S
|-----------------------------------------------|
|-----------------------------------------------|
|-----------------------------------------------|
|-----------------------------6----------(6)----|
|-3-3-3---3-3-3-3--3-3-3--6---4----------(4)----|
|-1-1-1---1-1-1-1--1-1-1--4---------------------|


Pre-Chorus
F5 G#5
E H S S E E
|-------------------------9-9-21b23----|
|-13--------------------------------14-|
|------10------------------------------|
|--------------------------------------|
|--------------------------------------|
|--------------------------------------|
|
| S S S T T S S S T T H
|--------------------------------------|
|--------------------------------------|
|--------------------------------------|
|--------------------------------------|
|--3-3--3-3-3-3-3-3-3-3-6--------------|
|--1-1--1-1-1-1-1-1-1-1-4--------------|


F5 Bb5
E S Q. +S S S E T S.
|-6b8---6-8----------------(8)-13-15-14b16-15-13--|
|-------------------------------------------------|
|-------------------------------------------------|
|-------------------------------------------------|
|-------------------------------------------------|
|-------------------------------------------------|
|
| Gtr II
| W
|-------------------------------------------------|
|-------------------------------------------------|
|-------------------------------------------------|
|-------------------------------------------------|
|-------------------------------------------------|
|-------------------------------------------------|
|
| Gtr III
| S S S T T S S S T T H
|-------------------------------------------------|
|-------------------------------------------------|
|------------------------3------------------------|
|------------------------3------------------------|
|-3---3-3-3--3-3-3-3-3-3-1------------------------|
|-1---1-1-1--1-1-1-1-1-1--------------------------|


Chorus
F5 C#5 Eb5 F5 C#5
~~~~~~~~~~~~~~~~~~~
S S Q. E S S E E H Q Q Q Q H
|-14b16---13------13-15-16-18b20-|-18-----------|---------------|
|--------------------------------|-----------1--|---2---4--2----|
|--------------------------------|--------------|---------------|
|--------------------------------|--------3-----|---------------|
|--------------------------------|--------------|---------------|
|--------------------------------|--------------|---------------|
|
| ~~~~~~~~~~~~~~~~~~~
| W H Q Q Q Q H
|--------------------------------|--------------|---1---3--1----|
|--------------------------------|-----------4--|---------------|
|--------------------------------|--------1-----|---------------|
|--------------------------------|--------------|---------------|
|--------------------------------|--------------|---------------|
|--------------------------------|--------------|---------------|
|
| H H H H +H H
|--------------------------------|--------------|---------------|
|--------------------------------|--------------|---------------|
|---------------6----------------|--8----10-----|-(10)-----6----|
|--3------------6----------------|--8----10-----|-(10)-----6----|
|--3------------4----------------|--6-----8-----|--(8)-----4----|
|--1-----------------------------|--------------|---------------|


F5 Eb5 F5 C#5
Q E E Q Q H E. E S S S
|-----------14b16-----------15-----------|-14b16-----------------------16--15---16-18-16-|
|--2b4--2-4------------------------------|-----------------------------------------------|
|----------------------------------------|-----------------------------------------------|
|----------------------------------------|-----------------------------------------------|
|----------------------------------------|-----------------------------------------------|
|----------------------------------------|-----------------------------------------------|
|
| Q E E Q Q H E. E S S S
|--1b3--1-3--6b8-------------6-----------|--6b8-------------------------8---6----8--9--8-|
|----------------------------------------|-----------------------------------------------|
|----------------------------------------|-----------------------------------------------|
|----------------------------------------|-----------------------------------------------|
|----------------------------------------|-----------------------------------------------|
|----------------------------------------|-----------------------------------------------|
|
| +H S S T T T T S S T T T T S S T T T T S S T T T T Q Q
|----------------------------------------|-----------------------------------------------|
|----------------------------------------|-----------------------------------------------|
|-(6)------------------------3-3-3-3-3-3-|-----------------------------------------------|
|-(6)--------3----3----------1-1-1-1-1-1-|--3----3---------3-3----------------6----------|
|-(4)--------3----3-3-3-3-3--------------|--3----3-3-3-3-3-3-3-3-3-3-3--3-----4----------|
|------------1----1-1-1-1-1--------------|--1----1-1-1-1-1-1-1-1-1-1-1--1----------------|


Eb5 G#5 Eb5
+S S S E S S S S S S E S S S
|-(16)-15-13-15-13-15------------------------------|
|---------------------9-9-11-13-9b11---------------|
|--------------------------------------13-12-13----|
|--------------------------------------------------|
|--------------------------------------------------|
|--------------------------------------------------|
|
| +S S S E S S S H
|--(8)--6--4--6--4--6------------------------------|
|--------------------------------------------------|
|--------------------------------------------------|
|--------------------------------------------------|
|--------------------------------------------------|
|--------------------------------------------------|
|
| H Q Q
|--------------------------------------------------|
|--------------------------------------------------|
|--------------------------------------------------|
|---8-------------------6------------8-------------|
|---6-------------------6------------6-------------|
|-----------------------4--------------------------|


F5 C#5 Eb5 Eb5
|-3-| |-3-| |-3-| |-3-|
+H Q Q E. T T Q S S S S S S S S S S S S
|---------11b13--11b13--|-11---9--8-6--------------------------|
|-----------------------|--------------4-6-8-9-8-6-4-6-8-9-8-6-|
|-(13)------------------|--------------------------------------|
|-----------------------|--------------------------------------|
|-----------------------|--------------------------------------|
|-----------------------|--------------------------------------|
|
| H Q Q E. T T Q H
|-----------------------|--------------------------------------|
|-----------------------|--------------------------------------|
|-----------------------|--------------------------------------|
|---------13b15--13b15--|-13--11-10-8--------------------------|
|-----------------------|--------------------------------------|
|-----------------------|--------------------------------------|
|
| H Q Q H H
|-----------------------|--------------------------------------|
|-----------------------|--------------------------------------|
|-----------------6-----|--8-----------------------------------|
|---3------3------6-----|--8-----------8-----------------------|
|---3------3------4-----|--6-----------6-----------------------|
|---1------1------------|--------------------------------------|


E5 C/E F5
|-3-| |-3-| |-3-| |-3-|
S S S S S S S S S S S S E E E E
|-0-1-3-4-3-1--0-1-3-4-3---18b20-18-17-18-|
|------------------------4----------------|
|-----------------------------------------|
|-----------------------------------------|
|-----------------------------------------|
|-----------------------------------------|
|
| W
|-----------------------------------------|
|-----------------------------------------|
|-----------------------------------------|
|-----------------------------------------|
|-----------------------------------------|
|-----------------------------------------|
|
| Q Q H
|-----------------------------------------|
|-----------------------------------------|
|--------------------------10-------------|
|-9-----------10-----------10-------------|
|-7------------7------------8-------------|
|-----------------------------------------|


F5 Eb5 C#5 Eb5/Bb F5
Q Q E E E E Q Q E E E E
|-17------18b20-18-17-18-|-----15--18b20-18-17-18-|
|-----18-----------------|-18---------------------|
|------------------------|------------------------|
|------------------------|------------------------|
|------------------------|------------------------|
|------------------------|------------------------|
|
| Gtr III
| Q Q H H H
|------------------------|------------------------|
|------------------------|------------------------|
|-10---8---6-------------|--8------10-------------|
|-10---8---6-------------|--8------10-------------|
|--8---6---4-------------|--6-------8-------------|
|------------------------|--6---------------------|


Eb5 C#5 D5/A D5
|--3--| |--3--| |--3--| |--3--|
Q Q E E E E Q Q S S S S S S S S S S S S
|-17------18b20-18-17-18-|-----15--11-13-15-16-15-13-11-13-15-16-15-13-|
|-----18-----------------|-18------------------------------------------|
|------------------------|---------------------------------------------|
|------------------------|---------------------------------------------|
|------------------------|---------------------------------------------|
|------------------------|---------------------------------------------|
|
| Q Q H H H
|------------------------|---------------------------------------------|
|------------------------|---------------------------------------------|
|-10---8---6-------------|--7------------------------------------------|
|-10---8---6-------------|--7-------7----------------------------------|
|--8---6---4-------------|--5-------5----------------------------------|
|------------------------|--5------------------------------------------|


E5 C/E
|--3--| |--3--| |--3--| |--3--| |-3--| |-3-|
S S S S S S S S S S S S E S S S S S S E
|-12-13-15-16-15-13-12-13-15-16-15-13---------------------|
|---------------------------------------------------------|
|-------------------------------------------9-10-10-9-7---|
|-------------------------------------12-12-------------7-|
|---------------------------------------------------------|
|---------------------------------------------------------|
|
| Q Q H
|---------------------------------------------------------|
|---------------------------------------------------------|
|---------------------------------------------------------|
|--9----------------10------------------------------------|
|--7-----------------7-----------------5------------------|
|---------------------------------------------------------|


Bb5 G5
|-3-| |-3-| |-3-| |-3-| |-3-| |-3-| |-3-|
E S S S S S S E E S S S S S S E E S S S E E E S S S S S S E
|---------3-1-0-----------5-1-0---|-6-5-6-5-3-1-------------------|
|---3-5-6-------3-3-3-5-6-------3-|-------------3-3-5-6-6-5-3-----|
|---------------------------------|---------------------------2---|
|-8-------------------------------|-------------------------------|
|---------------------------------|-------------------------------|
|---------------------------------|-------------------------------|
|
| H H Q Q H
|---------------------------------|-------------------------------|
|---------------------------------|-------------------------------|
|---------------------------------|-------------------------------|
|-----------------0---------------|-3-----------------------------|
|-1-------------------------------|-1-------5---5-----------------|
|---------------------------------|---------3---------------------|


Bb5 G5 D5
|-3-| |-3-| |-3-| |-3-| |-3-| |-3-| |-3-| |-3-| |-3--|
E S S S S S S E E S S S S S S E E S S S E E S S S S S S S S S S S +S
|---------3-1-0-----------5-1-0---|-6-5-6-5-3-1----------------------------|
|---3-5-6-------3-3-3-5-6-------3-|-------------3-5-6-3-5-6-8-6-5-5-3-(3)--|
|---------------------------------|----------------------------------------|
|-3-------------------------------|----------------------------------------|
|---------------------------------|----------------------------------------|
|---------------------------------|----------------------------------------|
|
| |-3-| |-3-| |-3-| |-3--|
| H H Q Q S S S S S S S S S S S S
|---------------------------------|----------------------------------------|
|---------------------------------|----------------------------------------|
|---------------------------------|-------------2--------------------------|
|---------------------------------|-------------0-0-0-0-0-0-0-0-0-0-0--0---|
|-----------------5---------------|-8-------5------------------------------|
|-6-------------------------------|-6-------3------------------------------|


Bb/D D5
|-3-| |-3-| |-3-| |-3-| |-3-| |-3-| |-3-|
S S S S S S S S S E S S S S S S S S S S S S
|-1-3-5-3-1-0-3-1-0-------------------------------|
|-------------------3-----------------------------|
|---------------------------0-2-0-2-3-2-3-5-3-5-7-|
|-------------------------3-----------------------|
|-------------------------------------------------|
|-------------------------------------------------|
|
| |-3-| |-3-| |-3-| |-3-| |-3-| |-3-| |-3-| |-3-|
| S S S S S S S S S S S S S S S S S S S S S S S S
|-------------------------------------------------|
|-------------------------------------------------|
|-3-----------------------2-----------------------|
|-0-0-0-0-0-0-0-0-0-0-0-0-0-0-0-0-0-0-0-0-0-0-0-0-|
|-------------------------------------------------|
|-------------------------------------------------|


D5
|-3-| |-3-|
S S S S Q S S S S S S Q
|-0---1---0-------------------1-3-5-3-1-0-5--------------|
|-------------3------------------------------------------|
|-----------------2--------------------------------------|
|--------------------------------------------------------|
|--------------------------------------------------------|
|--------------------------------------------------------|
|
| |--3--| |--3--| |-3-| |-3-| |-3-| |-3-| |-3-| |-3-|
| S S S S S S S S S S S S S S S S S S S S S S S S
|--------------------------------------------------------|
|--------------------------------------------------------|
|-2---------------------------2--------------------------|
|-0-0---0-0-0---0-0-0-0-0-0-0-0-0-0-0-0-0-0-0-0-0-0-0----|
|--------------------------------------------------------|
|--------------------------------------------------------|


Bb/D G5/D
|-3-| |-3-| |-3-| |-3-| |-3-| |-3-|
S S S S S S Q S S S S S S S S S S S S
|-1-3-5-3---0-1-----------1-3-5-3-1-0-1-3-5-3-1-0-|
|-------------------------------------------------|
|-------------------------------------------------|
|-------------------------------------------------|
|-------------------------------------------------|
|-------------------------------------------------|
|
| |-3-| |-3-| |-3-| |-3-| |-3-| |-3-| |-3-| |-3-|
| S S S S S S S S S S S S S S S S S S S S S S S S
|-------------------------------------------------|
|-------------------------------------------------|
|-3-----------------------0-----------------------|
|-0-0-0-0-0-0-0-0-0-0-0-0-0-0-0-0-0-0-0-0-0-0-0-0-|
|-------------------------------------------------|
|-------------------------------------------------|


D5
|-3-| |-3-| |-3-| |-3-|
S S S S S S S S S S S S Q Q
|-1-3-5-3-1-0-1-0------------5--|
|-----------------3-2-3-5-3-----|
|-------------------------------|
|-------------------------------|
|-------------------------------|
|-------------------------------|
|
| E E E E H
|-------------------------------|
|-------------------------------|
|-------------------------------|
|-0-----------0-----------7-----|
|-------0-----------0-----5-----|
|-------------------------------|


Bb5 B5
|-3-| |-3-| |-3-| |-3-|
S S T T S Q S S S S S S S S S S S S
|-6-5-3-5-3-1--------------------------|
|--------------------------------------|
|----------------0-2-0-2-3-2-3-5-3-5-7-|
|--------------3-----------------------|
|--------------------------------------|
|--------------------------------------|
|
| H H
|--------------------------------------|
|--------------------------------------|
|--------------------------------------|
|-3------------4-----------------------|
|-1------------2-----------------------|
|--------------------------------------|


C5 D5
|-3-| |-3-| |-3-| |-3-| |-3--| |-3--|
S S S S S S S S S S S S E +S S S E +S S S
|-------------0-1-3-1-3-1-3b5-(3)-3-1-------3-5--|
|-1-3-5-3-5-6-------------------------3-(3)------|
|------------------------------------------------|
|------------------------------------------------|
|------------------------------------------------|
|------------------------------------------------|
|
| H H
|------------------------------------------------|
|------------------------------------------------|
|------------------------------------------------|
|-5-----------------------7----------------------|
|-3-----------------------5----------------------|
|------------------------------------------------|


Bb5 G5
|-3-| |-3-| |-3-| |-3-| |-3-|
S S S Q. S S S S S S S S S S S S
|-6-5-3------1-3-5-3-1---1-3-5-3-1---|
|-------3----------------------------|
|------------------------------------|
|------------------------------------|
|------------------------------------|
|------------------------------------|
|
| H H
|------------------------------------|
|------------------------------------|
|------------------------------------|
|-3----------------------------------|
|-1----------5-----------------------|
|------------3-----------------------|


C5 A5
|-3-| |-3-| |-3-|
S S S S S S E E E E. T T E E E. T T E E E S S E E
|-1-3-5-3-1-0-1-0------------5-|-3--1-3-0-------0-1-5---|
|-----------------1-3--3-5-6---|----------3---3---------|
|------------------------------|------------------------|
|------------------------------|------------------------|
|------------------------------|------------------------|
|------------------------------|------------------------|
|
| Q Q H W
|------------------------------|------------------------|
|------------------------------|------------------------|
|------------------------------|------------------------|
|-5-----------2----------------|------------------------|
|-3-----------0----------------|------------------------|
|------------------------------|------------------------|


E. T T Q E. T T E E E. T T E E E S S E E
|-3--5h6-3-----------5-|-3--1h3-0-----------5-|
|-----------3--3h5-6---|----------3---3-5-6---|
|----------------------|----------------------|
|----------------------|----------------------|
|----------------------|----------------------|
|----------------------|----------------------|
|
| W W
|----------------------|----------------------|
|----------------------|----------------------|
|----------------------|----------------------|
|----------------------|----------------------|
|----------------------|----------------------|
|----------------------|----------------------|


D5 C5
E. T T Q H
|-3--5h6------------------------------|
|--------3----------------------------|
|-------------------------------------|
|-------------------------------------|
|-------------------------------------|
|-------------------------------------|
|
| |-3-| |-3-| |-3-| |-3-|
| H S S S S S S S S S S S S
|-------------------------------------|
|-------------------------------------|
|-----------2-----2-2-2-2-------------|
|-----------0-----0-0-0-0-----5-------|
|-----------------------------3-------|
|-------------------------------------|


Bb5 C5 D5 C5
Gtr III
|-3-| |-3-| |-3-| |-3-| |-3-| |-3-| |-3-| |-3-|
S S S S S S S S S S S S S S S S S S S S S S S S
|-------------------------------------------------|
|-------------------------------------------------|
|-------------------------2-----2-2-2-2-----------|
|-3-----3-3-3-3-----5-----0-----0-0-0-0-----5-----|
|-1-----1-1-1-1-----3-----------------------3-----|
|-------------------------------------------------|


Bb5 C5 D5 C5
|-3-| |-3-| |-3-| |-3-| |-3-| |-3-| |-3-| |-3-|
S S S S S S S S S S S S S S S S S S S S S S S S
|--------------------------------------------------|
|--------------------------------------------------|
|-------------------------2-----2-2-2-2------------|
|-3-----3-3-3-3-----5-----0-----0-0-0-0-----5------|
|-1-----1-1-1-1-----3-----------------------3------|
|--------------------------------------------------|


Bb5 C5 D5 C5
Gtr I
W
|-------------------------------------------------|
|-------------------------------------------------|
|-------------------------------------------------|
|-------------------------------------------------|
|-------------------------------------------------|
|-------------------------------------------------|
|
| Gtr III
| |-3-| |-3-| |-3-| |-3-| |-3-| |-3-| |-3-| |-3-|
| S S S S S S S S S S S S S S S S S S S S S S S S
|-------------------------------------------------|
|-------------------------------------------------|
|-------------------------2-----2-2-2-2-----------|
|-3-----3-3-3-3-----5-----0-----0-0-0-0-----5-----|
|-1-----1-1-1-1-----3-----------------------3-----|
|-------------------------------------------------|


Bb5 C5 D5 Bb5 D5
|--3--| |--3--|
H E S S S E E E. Q +S E S S S E E
|-------------------------13-13-15-17-15-13-|-16--13--(13)-10-13-15-17-15-13-|
|-------------------------------------------|--------------------------------|
|-------------------------------------------|--------------------------------|
|-------------------------------------------|--------------------------------|
|-------------------------------------------|--------------------------------|
|-------------------------------------------|--------------------------------|
|
| |-3-| |-3-| |-3-| |-3-|
| S S S S S S S S S S S S H H H
|-------------------------------------------|--------------------------------|
|-------------------------------------------|--------------------------------|
|--------------------------2----------------|---------------2----------------|
|-3-----3-3-3-3-----5------0----------------|--3------------0----------------|
|-1-----1-1-1-1-----3-----------------------|--1-----------------------------|
|-------------------------------------------|--------------------------------|


C5 Bb5 D5
|--3--|
E. Q +S E S S S E E
|-12--10--(10)-13-13-15-17-15-13-|
|--------------------------------|
|--------------------------------|
|--------------------------------|
|--------------------------------|
|--------------------------------|
|
| E. Q +S H
|--------------------------------|
|--------------------------------|
|---------------2----------------|
|--5---3---(3)--0----------------|
|--3---1---(1)-------------------|
|--------------------------------|


Bb5 D5 C5 Bb5 C5
|--3--|
E. Q +S E S S S E E E. E E. E E E E
|-12--13--(13)-10-13-15-17-15-13-|-12--10--8----------------------|
|--------------------------------|--------------------------------|
|--------------------------------|--------------------------------|
|--------------------------------|--------------------------------|
|--------------------------------|--------------5---6b8---7---5---|
|--------------------------------|--------------------------------|
|
| H H E. E. E S S S S S S S S
|--------------------------------|--------------------------------|
|--------------------------------|--------------------------------|
|---------------2----------------|--------------------------------|
|--3------------0----------------|--5---3-----5-------------------|
|--1-----------------------------|--3---1-----3-5-5-5---5-5-5-5-5-|
|--------------------------------|--------------------------------|


E E E E E E E E E E E E E E E E
|--------------------------------------|-------------------------------------|
|--------------------------------------|-------------------------------------|
|--------------------------------------|-------------------------------------|
|------------5---7---------------------|-3b5---3---2---0---0---1b3---2---0---|
|-8b10---8-----------5---6b8---7---5---|-------------------------------------|
|--------------------------------------|-------------------------------------|
|
| S S S S S S S S S S S S S S S S S S S S S S S S S S S S S S S S
|--------------------------------------|-------------------------------------|
|--------------------------------------|-------------------------------------|
|--------------------------------------|-------------------------------------|
|--------------------------------------|-------------------------------------|
|-5----5-5-5-5-5-5-5-5-5-5---5-5-5-5-5-|-5---5-5-5-5-5-5-5-5-5-5---5-5-5-5-5-|
|--------------------------------------|-------------------------------------|


E E E E S S S S S S S S
|-----------------------------------|
|-----------------------------------|
|-----------------------------------|
|-3b5---3---5---7---0-3-2-0-5-3-2-0-|
|-----------------------------------|
|-----------------------------------|
|
| S S S S S S S S S S S S S S S S
|-----------------------------------|
|-----------------------------------|
|-----------------------------------|
|-----------------------------------|
|-5---5-5-5-5-5-5-5-5-5-5-5-5-5-5-5-|
|-----------------------------------|


|-3-| |-3-| |-3--| |-3--|
S S S S T T T T T T T T S S S S S S S S S S S S
|-----------------------------------------------------|
|-------------------------3-5-6-8-6-8-10-8-10-11-10-8-|
|-----------------------------------------------------|
|-0-3-2-0-0-3-2-0-5-3-2-0-----------------------------|
|-----------------------------------------------------|
|-----------------------------------------------------|
|
| S S S S S S S S H
|-----------------------------------------------------|
|-----------------------------------------------------|
|-----------------------------------------------------|
|-----------------------------------------------------|
|-5-5-5-5-5---5---5---5-------------------------------|
|-----------------------------------------------------|


|-3-| |-3-| |-3-| |-3-| |-3-| |-3-| |-3--| |-3--|
S S S S S S S S S S S S S S S S S S S S S S S S
|-----------------------------------------------------|
|-3-5-6-8-6-5-6-5-3-5-3-2-3-5-6-8-6-8-10-8-10-11-10-8-|
|-----------------------------------------------------|
|-----------------------------------------------------|
|-----------------------------------------------------|
|-----------------------------------------------------|
|
| W
|-----------------------------------------------------|
|-----------------------------------------------------|
|-----------------------------------------------------|
|-----------------------------------------------------|
|-----------------------------------------------------|
|-----------------------------------------------------|


|-3-| |-3-| |-3-| |-3-| |-3-| |-3-| |-3--| |-3--|
S S S S S S S S S S S S S S S S S S S S S S S S
|-------------------------3-5-6-8-6-8-10-8-10-11-10-8--|
|-3-5-6-8-6-5-6-5-3-5-3-1------------------------------|
|------------------------------------------------------|
|------------------------------------------------------|
|------------------------------------------------------|
|------------------------------------------------------|
|
| |-3-| |-3-| |-3--| |-3--|
| H S S S S S S S S S S S S
|------------------------------------------------------|
|------------------------------------------------------|
|------------------------------------------------------|
|------------------------------------------------------|
|------------------------------------------------------|
|-------------------------3-3-3-3-3-3--3-3--3--3--3-3--|


|-3-| |-3-| |-3-| |-3-| |-3-| |-3-| |-3--| |-3--|
S S S S S S S S S S S S S S S S S S S S S S S S
|-3-5-6-8-6-5-6-5-3-5-3-2-3-5-6-8-6-8-10-8-10-11-10-8-|
|-----------------------------------------------------|
|-----------------------------------------------------|
|-----------------------------------------------------|
|-----------------------------------------------------|
|-----------------------------------------------------|
|
| Gtr II
| W
|-----------------------------------------------------|
|-----------------------------------------------------|
|-----------------------------------------------------|
|-----------------------------------------------------|
|-----------------------------------------------------|
|-----------------------------------------------------|
|
| Gtr III
| |-3-| |-3-| |-3-| |-3-| |-3-| |-3-| |-3--| |-3--|
| S S S S S S S S S S S S S S S S S S S S S S S S
|-----------------------------------------------------|
|-----------------------------------------------------|
|-----------------------------------------------------|
|-----------------------------------------------------|
|-----------------------------------------------------|
|-3-3-3-3-3-3-3-3-3-3-3-3-3-3-3-3-3-3--3-3--3--3--3-3-|


|-3-| |-3-| |-3-| |-3-|
S S S S S S S S S S S S Q. E
|-3-5-6-8-6-5-6-5-3-5-3-1-1------------3----|
|-------------------------------------------|
|-------------------------------------------|
|-------------------------------------------|
|-------------------------------------------|
|-------------------------------------------|
|
| H Q. E
|-------------------------------------------|
|-------------------------3------------5----|
|-------------------------------------------|
|-------------------------------------------|
|-------------------------------------------|
|-------------------------------------------|
|
| |-3-| |-3-| |-3-| |-3-|
| S S S S S S S S S S S S S S S S S S S S
|-------------------------------------------|
|-------------------------------------------|
|-------------------------------------------|
|-------------------------0----0---0---0----|
|-------------------------------------------|
|-3-3-3-3-3-3-3-3-3-3-3-3-------------------|


Q. E Q. E H H
|-1------------3---1------------3---|-1---------------6------------------------|
|-----------------------------------|------------------------------------------|
|-----------------------------------|------------------------------------------|
|-----------------------------------|------------------------------------------|
|-----------------------------------|------------------------------------------|
|-----------------------------------|------------------------------------------|
|
| Q. E Q. E H H
|-----------------------------------|------------------------------------------|
|-3------------5---3------------5---|-3---------------8------------------------|
|-----------------------------------|------------------------------------------|
|-----------------------------------|------------------------------------------|
|-----------------------------------|------------------------------------------|
|-----------------------------------|------------------------------------------|
|
| |-3-| |-3-| |-3-| |-3-|
| S S S S S S S S S S S S S S S S S S S S S S S S S S S S S S S S S S S S
|-----------------------------------|------------------------------------------|
|-----------------------------------|------------------------------------------|
|-----------------------------------|------------------------------------------|
|-0----0---0---0---0----0---0---0---|-0---0---0---0----------------------------|
|-----------------------------------|------------------------------------------|
|-----------------------------------|-----------------3-3-3-3-3-3-3-3-3-3-3-3--|


H Q. E
|-10-----------------------15------------------11-----|
|-----------------------------------------------------|
|-----------------------------------------------------|
|-----------------------------------------------------|
|-----------------------------------------------------|
|-----------------------------------------------------|
|
| H Q. E
|-----------------------------------------------------|
|-11-----------------------15------------------13-----|
|-----------------------------------------------------|
|-----------------------------------------------------|
|-----------------------------------------------------|
|-----------------------------------------------------|
|
| |-3-| |-3-| |-3-| |-3-| |-3--| |-3-| |-3-| |-3-|
| S S S S S S S S S S S S S S S S S S S S S S S S
|-----------------------------------------------------|
|-----------------------------------------------------|
|-----------------------------------------------------|
|-----------------------------------------------------|
|-----------------------------------------------------|
|--3-3-3-3-3-3-3-3-3-3-3-3--3--3-3-3-3-3-3-3-3--3-3-3-|


|-3-| |-3-| |-3-|
E E E E E S S S S S S S S S
|-10------8-----10-----8------------------------------|
|--------------------------------10-6-8-5-6-3-5-3-3---|
|-----------------------------------------------------|
|-----------------------------------------------------|
|-----------------------------------------------------|
|-----------------------------------------------------|
|
| |-3-| |-3-| |-3-|
| E E E E E S S S S S S S S S
|-----------------------------------------------------|
|-11-----10-----11----------------3-3-3-3-3-3-3-1-3---|
|-----------------------------------------------------|
|-----------------------------------------------------|
|-----------------------------------------------------|
|-----------------------------------------------------|
|
| |-3-| |-3-| |-3-| |-3-| |-3-| |-3-| |-3-|
| S S S S S S S S S S S S S S S S S S S S S S S
|-----------------------------------------------------|
|-----------------------------------------------------|
|-----------------------------------------------------|
|----------------------------0----0-0-0-0-0-0-0-0-0---|
|-----------------------------------------------------|
|--3-3-3--3-3-3--3-3-3-3-3-3--------------------------|


|-3-| |-3-| |-3-| |-3-| |-3-|
E S S S S S S E E S S S S S S S S S
|-----5-1-3-0-1-------------5-1-3-0-1---------|
|---------------3-5-------------------3-5-3-3-|
|---------------------------------------------|
|---------------------------------------------|
|---------------------------------------------|
|---------------------------------------------|
|
| |-3-| |-3-| |-3-| |-3-| |-3-|
| E S S S S S S E E S S S S S S S S S
|---------------------------------------------|
|-----3-3-3-3-3-3-3---------3-3-3-3-3-3-3-1-3-|
|---------------------------------------------|
|---------------------------------------------|
|---------------------------------------------|
|---------------------------------------------|
|
| |-3-| |-3-| |-3-| |-3-| |-3-| |-3-|
| S S S S S S S S S S S S S S S S S S S S S S
|---------------------------------------------|
|---------------------------------------------|
|---------------------------------------------|
|-0---0-0-0-0-0-0-0-0-0-0---0-0-0-0-0-0-0-0-0-|
|---------------------------------------------|
|---------------------------------------------|


G5
|-3-| |-3-| |-3-| |-3-| |-3-| |-3-|
E S S S S S S S S S E S S S S S S S S S
|-----5-1-3-0-1-------------10-6-8-5-6-----------|
|---------------3-5-3-3----------------8-10-8-8--|
|------------------------------------------------|
|------------------------------------------------|
|------------------------------------------------|
|------------------------------------------------|
|
| |-3-| |-3-| |-3-| |-3-| |-3-|
| E S S S S S S E E S S S S S S S S S
|------------------------------------------------|
|-----3-3-3-3-3-3-3----------8-8-8-8-8-8--8-6-8--|
|------------------------------------------------|
|------------------------------------------------|
|------------------------------------------------|
|------------------------------------------------|
|
| |-3-| |-3-| |-3-| |-3-| |-3-| |-3-|
| S S S S S S S S S S S S S S S S S S S S S S
|------------------------------------------------|
|------------------------------------------------|
|------------------------------------------------|
|-0---0-0-0-0-0-0-0-0-0--------------------------|
|-----------------------5----5-5-5-5-5-5--5-5-5--|
|-----------------------3----3-3-3-3-3-3--3-3-3--|


|-3-| |-3-| |-3-| |-3-| |-3-| |-3-|
E S S S S S S S S S E S S S S S S S S S
|-----10-6-8-5-6--------------10-6-8-5-6----------|
|----------------8-10-8-8----------------8-10-8-8-|
|-------------------------------------------------|
|-------------------------------------------------|
|-------------------------------------------------|
|-------------------------------------------------|
|
| |-3-| |-3-| |-3-| |-3-| |-3-|
| E S S S S S S E E S S S S S S S S S
|-------------------------------------------------|
|------8-8-8-8-8-8--8----------8-8-8-8-8-8--8-6-8-|
|-------------------------------------------------|
|-------------------------------------------------|
|-------------------------------------------------|
|-------------------------------------------------|
|
| |-3-| |-3-| |-3-| |-3-| |-3-| |-3-|
| S S S S S S S S S S S S S S S S S S S S S S
|-------------------------------------------------|
|-------------------------------------------------|
|-------------------------------------------------|
|-------------------------------------------------|
|-5----5-5-5-5-5-5--5-5-5-5----5-5-5-5-5-5--5-5-5-|
|-3----3-3-3-3-3-3--3-3-3-3----3-3-3-3-3-3--3-3-3-|


|-3-| |-3-| |-3--|
E S S S S S S S S +S Q. E
|-----10-6-8-5-6------------------------------|
|----------------8-10-8-(8)-6------------5----|
|---------------------------------------------|
|---------------------------------------------|
|---------------------------------------------|
|---------------------------------------------|
|
| |-3-| |-3-|
| E S S S S S S E Q. E
|---------------------------------------------|
|------8-8-8-8-8-8--8--------------------8----|
|---------------------------7-----------------|
|---------------------------------------------|
|---------------------------------------------|
|---------------------------------------------|
|
| |-3-| |-3-| |-3--|
| S S S S S S S S S S S S S S S S S S S
|---------------------------------------------|
|---------------------------------------------|
|---------------------------------------------|
|---------------------------0----0---0---0----|
|-5----5-5-5-5-5-5--5-5--5--------------------|
|-3----3-3-3-3-3-3--3-3--3--------------------|


Q. E Q. E
|-----------------------------------------|
|-6--------------5-----6------------5-----|
|-----------------------------------------|
|-----------------------------------------|
|-----------------------------------------|
|-----------------------------------------|
|
| Q. E Q. E
|-----------------------------------------|
|----------------8------------------8-----|
|-7--------------------7------------------|
|-----------------------------------------|
|-----------------------------------------|
|-----------------------------------------|
|
| |-3-| |-3-| |-3-|
| S S S S S S S S S S S S S S S S S S S
|-----------------------------------------|
|-----------------------------------------|
|-----------------------------------------|
|-0----0---0-0-0-0-0-0-0----0---0---0-0-0-|
|-----------------------------------------|
|-----------------------------------------|


G5
H H
|---------------------6---------------------|
|-6-----------------------------------------|
|-------------------------------------------|
|-------------------------------------------|
|-------------------------------------------|
|-------------------------------------------|
|
| H H
|-------------------------------------------|
|---------------------8---------------------|
|-7-----------------------------------------|
|-------------------------------------------|
|-------------------------------------------|
|-------------------------------------------|
|
| |-3-| |-3-| |-3-| |-3-| |-3-|
| S S S S S S S S S S S S S S S S S S S S S
|-------------------------------------------|
|-------------------------------------------|
|-------------------------------------------|
|-0---0---0-0-0-0-0-0-----------------------|
|---------------------5---5-5-5-5-5-5-5-5-5-|
|---------------------3---3-3-3-3-3-3-3-3-3-|


H Q. E
|-10---------------------15----------------11-----|
|-------------------------------------------------|
|-------------------------------------------------|
|-------------------------------------------------|
|-------------------------------------------------|
|-------------------------------------------------|
|
| H Q. E
|--6---------------------10-----------------8-----|
|-------------------------------------------------|
|-------------------------------------------------|
|-------------------------------------------------|
|-------------------------------------------------|
|-------------------------------------------------|
|
| |-3-| |-3-| |-3-| |-3-| |-3-| |-3-|
| S S S S S S S S S S S S S S S S S S S S S S
|-------------------------------------------------|
|-------------------------------------------------|
|-------------------------------------------------|
|-------------------------------------------------|
|--5---5-5-5-5-5-5-5-5-5--5----5-5-5-5-5-5--5-5-5-|
|--3---3-3-3-3-3-3-3-3-3--3----3-3-3-3-3-3--3-3-3-|


G5 A5 Bb5D5 C5 C5
E E E E Q Q Q Q Q Q
|-10---8-----10-----8-----6--5--|-6--10------------|
|-------------------------------|--------11--10----|
|-------------------------------|------------------|
|-------------------------------|------------------|
|-------------------------------|------------------|
|-------------------------------|------------------|
|
| E E E E Q Q Q Q Q Q
|--6---5------6-----------------|-----6------------|
|-------------------------8--6--|-8-------6---5----|
|-------------------------------|------------------|
|-------------------------------|------------------|
|-------------------------------|------------------|
|-------------------------------|------------------|
|
| |-3-| |-3-| |-3-|
| S S S S S S S S S S S Q Q Q Q Q Q
|-------------------------------|------------------|
|-------------------------------|------------------|
|----------------------------2--|-3---7---5---5----|
|-------------------------5--2--|-3---7---5---5----|
|--5---5-5-5--5-5-5-5-5-5-5--0--|-1---5---3---3----|
|--3---3-3-3--3-3-3-3-3-3-3-----|------------------|


No guitars, no bass
D5 Bb5
Q Q H W W W
|------------|----------|----------|------|
|-8----------|----------|----------|------|
|----7-------|----------|----------|------|
|------------|----------|----------|------|
|------------|----------|----------|------|
|------------|----------|----------|------|
|
| Gtr II
| Q Q H W W W
|------------|----------|----------|------|
|------------|----------|----------|------|
|-7----------|----------|----------|------|
|----8-------|----------|----------|------|
|------------|----------|----------|------|
|------------|----------|----------|------|
|
| Gtr III
| H H W W W
|------------|----------|----------|------|
|------------|----------|----------|------|
|-7-----3----|----------|----------|------|
|-7-----3----|----------|----------|------|
|-5-----1----|----------|----------|------|
|------------|----------|----------|------|


Chorus
F5 C#5
~~~~~~~~~~~~~~~~~~~~
W W Q Q Q Q H Q E E
|----------|----------|-----------------|---------------------|
|----------|----------|-----------------|---------------------|
|----------|----------|-----------------|---------------------|
|----------|----------|-----10--11--13--|-11----11b13--11-13--|
|----------|----------|--8--------------|---------------------|
|----------|----------|-----------------|---------------------|
|
| Gtr II
| ~~~~~~~~~~~~~~~~~~~~
| W W Q Q Q Q H Q E E
|----------|----------|-----------------|---------------------|
|----------|----------|------4---6---8--|--6-----6b8----6--8--|
|----------|----------|-----------------|---------------------|
|----------|----------|--6--------------|---------------------|
|----------|----------|-----------------|---------------------|
|----------|----------|-----------------|---------------------|
|
| Gtr III
| W W W W
|----------|----------|-----------------|---------------------|
|----------|----------|-----------------|---------------------|
|----------|----------|-10--------------|--6------------------|
|----------|----------|-10--------------|--6------------------|
|----------|----------|--8--------------|--4------------------|
|----------|----------|-----------------|---------------------|


F5 Eb5 F5
Q Q H
|-14b16-----------15-----------14b16-----------------------|
|----------------------------------------------------------|
|----------------------------------------------------------|
|----------------------------------------------------------|
|----------------------------------------------------------|
|----------------------------------------------------------|
|
| Q Q H
|--6b8-------------6------------6b8------------------------|
|----------------------------------------------------------|
|----------------------------------------------------------|
|----------------------------------------------------------|
|----------------------------------------------------------|
|----------------------------------------------------------|
|
| S S T T T T S S T T T T S S T T T T S S T T T T
|----------------------------------------------------------|
|----------------------------------------------------------|
|------------------3-3-3-3-3-3-----------------------------|
|--3----3----------1-1-1-1-1-1--3----3---------3-3---------|
|--3----3-3-3-3-3---------------3----3-3-3-3-3-3-3-3-3-3-3-|
|--1----1-1-1-1-1---------------1----1-1-1-1-1-1-1-1-1-1-1-|


C#5 Eb5 G#5 Eb5 F5
E. E S S E S S E S S S S S S E S S S +H
|-16--15---16-18-16---15-13-15-13-15----|-----------------------------------|
|---------------------------------------|----11-13--------------------------|
|------------------------------------13-|-13-------13b15---13-12-13-(13)----|
|---------------------------------------|-----------------------------------|
|---------------------------------------|-----------------------------------|
|---------------------------------------|-----------------------------------|
|
| E. E S S E S S E S S S W
|---------------------------------------|-----------------------------------|
|-13--11---13-14-13---11--9-11--9-11----|-----------------------------------|
|---------------------------------------|-----------------------------------|
|---------------------------------------|-----------------------------------|
|---------------------------------------|-----------------------------------|
|---------------------------------------|-----------------------------------|
|
| Q Q H Q Q H
|---------------------------------------|-----------------------------------|
|---------------------------------------|-----------------------------------|
|---------------------------------------|-----------------------------------|
|--------6----------8-------------------|--6-------------8------------3-----|
|--3-----4----------6-------------------|--6-------------6------------3-----|
|--1------------------------------------|--4--------------------------1-----|


F5 C#5 Eb5
Q Q E. T T Q
|-11b13--11b13--11--9-8-6--|
|--------------------------|
|--------------------------|
|--------------------------|
|--------------------------|
|--------------------------|
|
| Q Q E. T T Q
|--------------------------|
|--------------------------|
|--8b10---8b10---8--6-5----|
|-----------------------8--|
|--------------------------|
|--------------------------|
|
| Q Q H
|--------------------------|
|--------------------------|
|---------6------8---------|
|--3------6------8---------|
|--3------4------6---------|
|--1-----------------------|


Eb5 E5 C/E F5 F5 Eb5
|-3-| |-3-| |-3-| |-3-| |-3-| |-3-| |-3-| |-3-|
S S S S S S S S S S S S S S S S S S S S S S S S E E E E Q Q
|-----------------------------3-4-3-1--0-1-3-4-3---|-18b20-18-17-18-17------|
|-4-6-8-9-8-6-4-6-8-9-8-6-5-6--------------------4-|--------------------18--|
|--------------------------------------------------|------------------------|
|--------------------------------------------------|------------------------|
|--------------------------------------------------|------------------------|
|--------------------------------------------------|------------------------|
|
| W W
|--------------------------------------------------|------------------------|
|--------------------------------------------------|------------------------|
|--------------------------------------------------|------------------------|
|--------------------------------------------------|------------------------|
|--------------------------------------------------|------------------------|
|--------------------------------------------------|------------------------|
|
| H Q Q H Q Q
|--------------------------------------------------|------------------------|
|--------------------------------------------------|------------------------|
|--------------------------------------------------|-10-------------10---8--|
|-8-----------------------9-----------10-----------|-10-------------10---8--|
|-6-----------------------7------------7-----------|--8--------------8---6--|
|--------------------------------------------------|------------------------|


C#5 Eb5/Bb F5 F5 Eb5 C#5 Eb5/Bb
E E E E Q Q E E E E Q Q E E E E Q Q
|-18b20-18-17-18---------|-18b20-18-17-18-17------|-18b20-18-17-18-----15--|
|----------------18--20--|--------------------18--|----------------18------|
|------------------------|------------------------|------------------------|
|------------------------|------------------------|------------------------|
|------------------------|------------------------|------------------------|
|------------------------|------------------------|------------------------|
|
| Gtr III
| H H H Q Q H H
|------------------------|------------------------|------------------------|
|------------------------|------------------------|------------------------|
|--6--------------8------|-10-------------10---8--|--6--------------8------|
|--6--------------8------|-10-------------10---8--|--6--------------8------|
|--4--------------6------|--8--------------8---6--|--4--------------6------|
|-----------------6------|------------------------|-----------------6------|


Eb5 E5 C/E
|--3--| |--3--| |--3--| |--3--| |--3--| |--3--| |--3--| |--3--|
S S S S S S S S S S S S S S S S S S S S S S S S
|-11-13-15-16-15-13-11-13-15-16-15-13-12-13-15-16-15-13-12-13-15-16-15-13-|
|-------------------------------------------------------------------------|
|-------------------------------------------------------------------------|
|-------------------------------------------------------------------------|
|-------------------------------------------------------------------------|
|-------------------------------------------------------------------------|
|
| H Q Q
|-------------------------------------------------------------------------|
|-------------------------------------------------------------------------|
|-------------------------------------------------------------------------|
|--8-----------------------------------9----------------10----------------|
|--6-----------------------------------7-----------------7----------------|
|-------------------------------------------------------------------------|


Guitar Solo
S T T T T S T T T T S T T S T T T T S T T T T S T T
|----------------------------------------------------------------------------------------|
|---------------------------------------------------------------------------10b11---9-8--|
|-------------------------------12b13---12-10-12-12-12-12-12-12-12-12-12-12--------------|
|-15-15-15-15-15-15-15-15-15-15----------------------------------------------------------|
|----------------------------------------------------------------------------------------|
|----------------------------------------------------------------------------------------|
|
| S T T T T S T T T T T T T T S T T T T S T T T T T T T T
|----------------------------------------------------------------------------------------|
|----------------------------------------------------------------------------------------|
|----------------------------------------------------------------------------------------|
|--3--3--3--3--3--3--3--3--3--3--3----3--3--3--------------------------------------------|
|----------------------------------------------4--4--4--4--4--4--4--4--4--4--4----4-4-4--|
|----------------------------------------------------------------------------------------|


S T T T T S T T T T S S Q Q
|-----------------------------------------|
|-9-9-9-9-9-9-9-9-9-9-9---11---11b13--11--|
|-----------------------------------------|
|-----------------------------------------|
|-----------------------------------------|
|-----------------------------------------|
|
| S T T T T S T T T T T T T T H
|-----------------------------------------|
|-----------------------------------------|
|-----------------------------------------|
|-0-0-0-0-0-0-0-0-0-0-0-0--0-0--8---------|
|-------------------------------6---------|
|-----------------------------------------|


S T T T T S T T T T S T T S T T T T S T T T T S T T
|---------------------3b4---3-1-3-3-3-3-3-3-3-3-3-3-5b6---4-3----|
|-6-6-6-6-6-6-6-6-6-6--------------------------------------------|
|----------------------------------------------------------------|
|----------------------------------------------------------------|
|----------------------------------------------------------------|
|----------------------------------------------------------------|
|
| S T T T T S T T T T T T T T S T T T T S T T T T T T T T
|----------------------------------------------------------------|
|----------------------------------------------------------------|
|----------------------------------------------------------------|
|-3-3-3-3-3-3-3-3-3-3-3---3-3-3----------------------------------|
|-------------------------------4-4-4-4-4-4-4-4-4-4-4---4-4-4----|
|----------------------------------------------------------------|


Eb5
S T T T T S T T T T S S Q Q
|-4-4-4-4-4-4-4-4-4-4-4---6---6b8--6--|
|-------------------------------------|
|-------------------------------------|
|-------------------------------------|
|-------------------------------------|
|-------------------------------------|
|
| Gtr II
| W
|-------------------------------------|
|-------------------------------------|
|-------------------------------------|
|-------------------------------------|
|-------------------------------------|
|-------------------------------------|
|
| Gtr III
| S T T T T S T T T T T T T T H
|-------------------------------------|
|-------------------------------------|
|-------------------------------------|
|-----------------------------8-------|
|-5-5-5-5-5-5-5-5-5-5-5-5-5-5-6-------|
|-------------------------------------|


Q T T S T T T T S E. T T S X X T X X T
|-4-----------4-6-8-6------9-8---------------8p6-4-8p6-4-|
|----------6----------9--------------6--9-11-------------|
|-----------------------5--------------------------------|
|--------------------------------------------------------|
|--------------------------------------------------------|
|--------------------------------------------------------|
|
| Q T T S T T T T S E. T T S X X T X X T
|--------------------------------------------------------|
|-6-------------8-9-8-6---11-9---------------9p8-6-9p8-6-|
|------------10------------------------10-12-------------|
|---------10------------------------10-------------------|
|--------------------------------------------------------|
|--------------------------------------------------------|
|
| S S S S S S S S S S S S S S S S
|--------------------------------------------------------|
|--------------------------------------------------------|
|--------------------------------------------------------|
|-3-3-3-3--3----3-3---3----------------------------------|
|--------------------------4-4--4-4--4-----4-4-----4-----|
|-1-1-1-1--1----1-1---1----------------------------------|


Eb5
S E. T T S T T T T E. T T S. S. S
|-11-13---------------8-6-4-------------------------|
|-------------6--9-11---------11b13-11--9-11---9--8-|
|---------------------------5-----------------------|
|---------------------------------------------------|
|---------------------------------------------------|
|---------------------------------------------------|
|
| S E. T T S T T T T E. T T S. S. S
|---------------------------------------------------|
|---------------------9-8-6-------------------------|
|-12-10---------10-12---------13----12-10-12--10--8-|
|------------10-------------------------------------|
|---------------------------------------------------|
|---------------------------------------------------|
|
| S S S S S S S S H
|---------------------------------------------------|
|---------------------------------------------------|
|---------------------------------------------------|
|------------------------------8--------------------|
|--5--5--5-5--5-----5-5---5----6--------------------|
|---------------------------------------------------|


Q T T S T T T T S E. T T S X X T X X T
|-------------------8-6------9-8---------------8p6-4-8p6-4--|
|--9-----------9-11-----9-----------------9-11--------------|
|----------10-------------5-----------10--------------------|
|-----------------------------------------------------------|
|-----------------------------------------------------------|
|-----------------------------------------------------------|
|
| Q T T S T T T T S E. T T S X X T X X T
|-----------------------------------------------------------|
|-------------------9-8-6---11-9---------------9p8-6-9p8-6--|
|-10----------10-12----------------------10-12--------------|
|----------10-------------------------10--------------------|
|-----------------------------------------------------------|
|-----------------------------------------------------------|
|
| S S S S S S S S S S S S S S S S
|-----------------------------------------------------------|
|-----------------------------------------------------------|
|-----------------------------------------------------------|
|--3-3-3-3--3-----3-3---3-----------------------------------|
|----------------------------4-4--4-4--4-----4-4-----4------|
|--1-1-1-1--1-----1-1---1-----------------------------------|


S E. T T S T T T T E. T T S. S. S
|-11-13---------------8-6-------------------------|
|-------------6--9-11-----9---11--11--9-11---9--8-|
|---------------------------5---------------------|
|-------------------------------------------------|
|-------------------------------------------------|
|-------------------------------------------------|
|
| S E. T T S T T T T E. T T S. S. S
|-------------------------------------------------|
|---------------------9-8-6-----------------------|
|-12-10---------10-12---------13--12-10-12--12--8-|
|------------10-----------------------------------|
|-------------------------------------------------|
|-------------------------------------------------|
|
| S S S S S S S S H
|-------------------------------------------------|
|-------------------------------------------------|
|-------------------------------------------------|
|------------------------------8------------------|
|--5--5--5-5--5-----5-5---5----6------------------|
|-------------------------------------------------|


W +W
|-16-------------------|-(16)------------------|
|----------------------|-----------------------|
|----------------------|-----------------------|
|----------------------|-----------------------|
|----------------------|-----------------------|
|----------------------|-----------------------|
|
| W +W
|----------------------|-----------------------|
|----------------------|-----------------------|
|----------------------|-----------------------|
|-15-------------------|-(15)------------------|
|----------------------|-----------------------|
|----------------------|-----------------------|
|
| H. S. X X T S. H. S. X X T S.
|----------------------|-----------------------|
|----------------------|-----------------------|
|----------------------|-----------------------|
|----------5----5------|-----------5----5------|
|--8----------8---8-6--|---8----------8---8-6--|
|----------------------|-----------------------|


+W W
|-(16)------------------|-----------------------|
|-----------------------|-----------------------|
|-----------------------|-----------------------|
|-----------------------|-----------------------|
|-----------------------|-----------------------|
|-----------------------|-----------------------|
|
| +W +W
|-----------------------|-----------------------|
|-----------------------|-----------------------|
|-----------------------|-----------------------|
|-(15)------------------|-(15)------------------|
|-----------------------|-----------------------|
|-----------------------|-----------------------|
|
| H. S. X X T S. H. S. X X T S.
|-----------------------|-----------------------|
|-----------------------|-----------------------|
|-----------------------|-----------------------|
|-----------5----5------|-----------5----5------|
|---8----------8---8-6--|---8----------8---8-6--|
|-----------------------|-----------------------|


Q Q Q Q Q Q Q Q
|-4--6--8--11--|-13--15--16--20--|
|--------------|-----------------|
|--------------|-----------------|
|--------------|-----------------|
|--------------|-----------------|
|--------------|-----------------|
|
| W W
|--------------|-----------------|
|--------------|-----------------|
|--------------|-----------------|
|--------------|-----------------|
|--------------|-----------------|
|--------------|-----------------|
|
| Q Q Q Q Q Q Q Q
|-1--3--4---6--|--8--11--13--15--|
|--------------|-----------------|
|--------------|-----------------|
|--------------|-----------------|
|--------------|-----------------|
|--------------|-----------------|


C#5 Bb5
W +W E E S S E S T T S S T T S S S
|-----------|-------------|-1-------------------------4-3-4-1------|
|-18--------|-(18)--------|-------1-----------6-4-2-1---------4-4--|
|-----------|-------------|-------------3-5-3----------------------|
|-----------|-------------|----------------------------------------|
|-----------|-------------|----------------------------------------|
|-----------|-------------|----------------------------------------|
|
| W +W W
|-----------|-------------|----------------------------------------|
|-----------|-------------|----------------------------------------|
|-----------|-------------|----------------------------------------|
|-18--------|-(18)--------|----------------------------------------|
|-----------|-------------|----------------------------------------|
|-----------|-------------|----------------------------------------|
|
| W W S T T S T T S S E S T T S S S S E
|-----------|-------------|----------------------------------------|
|-----------|-------------|----------------------------------------|
|--6--------|-------------|----------------------------------------|
|--6--------|---8---------|----------------------------------------|
|--4--------|---8---------|----------------------------------------|
|-----------|---6---------|-1-1-1-1-1-1-1-1-1-1-1-1-1-1-1---3-1----|


S T T S S E S S Q. +S S
|-4-3-4-3-1---6---4-6-8--------------(8)-8-|
|------------------------------------------|
|------------------------------------------|
|------------------------------------------|
|------------------------------------------|
|------------------------------------------|
|
| W
|------------------------------------------|
|------------------------------------------|
|------------------------------------------|
|------------------------------------------|
|------------------------------------------|
|------------------------------------------|
|
| S T T S T T S S E S T T S S S S E
|------------------------------------------|
|------------------------------------------|
|------------------------------------------|
|------------------------------------------|
|-1-1-1-1-1-1-1-1-1---1--1-1-1-1-1-3--1----|
|------------------------------------------|


Bb5 G#5 F#5 F5
S T T S T T S S S S H Q. S S Q. S S
|-9-8h9-8-6h8-6-8-6-4-6----|-8------------------|
|--------------------------|------1-4-6----1-4--|
|--------------------------|--------------------|
|--------------------------|--------------------|
|--------------------------|--------------------|
|--------------------------|--------------------|
|
| W Q. E H
|--------------------------|--------------------|
|--------------------------|-6------------------|
|--------------------------|--------------------|
|--------------------------|--------------------|
|--------------------------|--------------------|
|--------------------------|--------------------|
|
| Q Q H W
|--------------------------|--------------------|
|--------------------------|--------------------|
|-3------------------------|--------------------|
|-3-----------6-------4----|-3------------------|
|-1-----------6-------4----|-3------------------|
|-------------4-------2----|-1------------------|


F5 C#5 C5 Bb5
Q. S S H S T T S S S T T S S H
|-8-------------|-9-8h9-8-6-8-6h8-6-4-6----|
|------1-4-6----|--------------------------|
|---------------|--------------------------|
|---------------|--------------------------|
|---------------|--------------------------|
|---------------|--------------------------|
|
| Q. E H W
|---------------|--------------------------|
|-6-------------|--------------------------|
|---------------|--------------------------|
|---------------|--------------------------|
|---------------|--------------------------|
|---------------|--------------------------|
|
| W Q Q H
|---------------|--------------------------|
|---------------|--------------------------|
|---------------|-6---------5---------3----|
|-3-------------|-6---------5---------3----|
|-3-------------|-4---------3---------1----|
|-1-------------|--------------------------|


F5 Bb5 G#5
S T T S S E S S S S S S S T T S S
|---8-6-8-8-6-------6-4-6-----4-3-3h4-3----|
|-6-------------------------------------4--|
|------------------------------------------|
|------------------------------------------|
|------------------------------------------|
|------------------------------------------|
|
| W
|------------------------------------------|
|------------------------------------------|
|------------------------------------------|
|------------------------------------------|
|------------------------------------------|
|------------------------------------------|
|
| S T T S S S T T S S S T T S S S T T S S
|------------------------------------------|
|------------------------------------------|
|------------------------------------------|
|-----------3-3-3-3------------------------|
|-3-3-3-3-3-1-1-1-1-1-6-6-6-6-6-6-6-6-6----|
|-1-1-1-1-1-----------4-4-4-4-4------------|


F5 Bb5 G#5
S T T S S E. S S S S S S T T S S
|---8-6-8---8-6--------4-3-1-----4-3-3h4-3---|
|-6----------------------------------------4-|
|--------------------------------------------|
|--------------------------------------------|
|--------------------------------------------|
|--------------------------------------------|
|
| Gtr III
| S S T T S S T T S S S T T S S S T T S S
|--------------------------------------------|
|--------------------------------------------|
|--------------------------------------------|
|-------------3--3-3-3-----------------------|
|-3-3---3-3-3-1--1-1-1-1-6-6-6-6-6-6-6-6-6---|
|-1-1---1-1-1------------4-4-4-4-4-----------|


F5 Bb5 G#5
S T T S S E S S S S S S S T T S S
|---8-6-8-8-6-------4-3-1-----4-3-3h4-3----|
|-6-------------------------------------4--|
|------------------------------------------|
|------------------------------------------|
|------------------------------------------|
|------------------------------------------|
|
| S T T S S S T T S S S T T S S S T T S S
|------------------------------------------|
|------------------------------------------|
|------------------------------------------|
|-----------3-3-3-3-3----------------------|
|-3-3-3-3-3-1-1-1-1-1-6-6-6-6-6-6-6-6-6-6--|
|-1-1-1-1-1-----------4-4-4-4-4------------|


Q=104
F5 Bb5 G#5 F5
S T T S S E. S S S S S S T T S S S S S S S S S S S S S S S S S S
|---8-6-8-8-6--------4-3-1-----4-3-3h4-3---|-4-----4-----11-8---8-6-4-4---4-4--|
|-6--------------------------------------4-|---6-4---6-4------9----------------|
|------------------------------------------|-----------------------------------|
|------------------------------------------|-----------------------------------|
|------------------------------------------|-----------------------------------|
|------------------------------------------|-----------------------------------|
|
| S T T S S S T T S S S T T S S S T T S S E S S S S S S S S S S S S S S
|------------------------------------------|-----------------------------------|
|------------------------------------------|-----------------------------------|
|------------------------------------------|-5------------------------1-1-1-1--|
|-----------3--3-3-3-3---------------------|-3---3-3-3-3--1-1-1-1-1-1----------|
|-3-3-3-3-3-1--1-1-1-1-6-6-6-6-6-6-6-6-6-6-|-----------------------------------|
|-1-1-1-1-1------------4-4-4-4-4-----------|-----------------------------------|


S S S S S S S S S S S S S S S S S S S S S S S S S S S S S S S S
|-6-8-6-------6-8-------6-8-6-9-8-|---9-8-6-4---4-4-6-8-6-------6-8-|
|-------8---9-----9---9-----------|-9---------------------8---9-----|
|---------8-----------------------|-------------------------8-------|
|---------------------------------|---------------------------------|
|---------------------------------|---------------------------------|
|---------------------------------|---------------------------------|
|
| S S S S S S S S S S S S S S S S S S S S S S S S S S S S S S S S
|---------------------------------|---------------------------------|
|---------------------------------|---------------------------------|
|-1-1-----------------------------|---------------------------------|
|-----1-1-1-1-1-1-------------3-3-|-3-3-3-3-1-1-1-1-1-1-1-1-1-1-1-1-|
|-----------------4-4-4-4-4-4-----|---------------------------------|
|---------------------------------|---------------------------------|


S S S S S S S S S S S S S S S S S S S S S S S S S S S S S S S S
|-4-1---4-1---11-8---8-6-4-4---4-4-|-6-8-6-------6-8-------6-8-6-9-8-|
|-----4-----4------9---------------|-------8---9-----9---9-----------|
|----------------------------------|---------8-----------------------|
|----------------------------------|---------------------------------|
|----------------------------------|---------------------------------|
|----------------------------------|---------------------------------|
|
| S S S S S S S S S S S S S S S S S S S S S S S S S S S S S S S S
|----------------------------------|---------------------------------|
|----------------------------------|---------------------------------|
|--------------------------1-1-1-1-|-1-1-----------------------------|
|-3-3-3-3-3-3--1-1-1-1-1-1---------|-----1-1-1-1-1-1-----------------|
|----------------------------------|-----------------4-4-4-4-4-4-4-4-|
|----------------------------------|---------------------------------|


G#5 Eb5 F5
S S S S S S S S S S S S S S S S S S S S S S S S S S S S S S S S
|---9-8-6-4----4-4-6-8-6--------6-8-|--4-1---4-1---11-8---8-6-4-4---4-4-|
|-9-----------------------8---9-----|------4-----4------9---------------|
|---------------------------8-------|-----------------------------------|
|-----------------------------------|-----------------------------------|
|-----------------------------------|-----------------------------------|
|-----------------------------------|-----------------------------------|
|
| S S S S Q. Q. E S S S S S S S S S S S S S S
|-----------------------------------|-----------------------------------|
|-----------------------------------|-----------------------------------|
|---------8-------------------------|-----------------------------------|
|---------6------------8------------|-10------------------------6-6-6-6-|
|-4-4-4-4--------------6------------|--8---8-8-8-8--6-6-6-6-6-6---------|
|-----------------------------------|-----------------------------------|


S S S S S S S S S S S S S S S S S S S S S S S S S S S S S S S S
|-6-8-6-------6-8-------6-8-6-9-8-|---9-8-6-4---4-4-6-8-6----------8-|
|-------8---9-----9---9-----------|-9---------------------8---9-11---|
|---------8-----------------------|-------------------------8--------|
|---------------------------------|----------------------------------|
|---------------------------------|----------------------------------|
|---------------------------------|----------------------------------|
|
| S S S S S S S S S S S S S S S S S S S S S S S S S S S S S S S S
|---------------------------------|----------------------------------|
|---------------------------------|----------------------------------|
|---------------------------------|----------------------------------|
|-6-6-------------------------3-3-|-3-3-3-3-1-1-1-1-1-1-1-1-1-1--1-1-|
|-----6-6-6-6-6-6-4-4-4-4-4-4-----|----------------------------------|
|---------------------------------|----------------------------------|


S S S S S S S S S S S S S S S S S S S S S S S S S S S S S S S S
|---------------11-8---8-6-4-4---4-4-|-6-8-6-------6-8-------6-8-6-9-8-|
|-9------9-----------9---------------|-------8---9-----9---9-----------|
|---10-8---10-8----------------------|---------8-----------------------|
|------------------------------------|---------------------------------|
|------------------------------------|---------------------------------|
|------------------------------------|---------------------------------|
|
| S S S S S S S S S S S S S S S S S S S S S S S S S S S S S S S S
|------------------------------------|---------------------------------|
|------------------------------------|---------------------------------|
|----------------------------1-1-1-1-|-1-1-----------------------------|
|-3--3-3-3--3-3--1-1-1-1-1-1---------|-----1-1-1-1-1-1-----------------|
|------------------------------------|-----------------4-4-4-4-4-4-4-4-|
|------------------------------------|---------------------------------|


G#5 Eb5
S S S S S S S S S S S S S S S S
|---9-8-6-4----4-4-6-8-6-----------8-|
|-9-----------------------8---9-11---|
|---------------------------8--------|
|------------------------------------|
|------------------------------------|
|------------------------------------|
|
| S S S S Q. Q.
|------------------------------------|
|------------------------------------|
|---------8--------------------------|
|---------6------------8-------------|
|-4-4-4-4--------------6-------------|
|------------------------------------|


Q=68
F5 G#5 Eb5 C#5
S T T S S S T T S S S S S S S T T S S
|-4-8-6-8-4-8-11-8-11-----------6---3-1-4-1-|
|---------------------11----8-9---6---------|
|------------------------10-----------------|
|-------------------------------------------|
|-------------------------------------------|
|-------------------------------------------|
|
| Q Q Q Q
|-------------------------------------------|
|-------------------------------------------|
|-------------------------------------------|
|-3---------6-------------8-------6---------|
|-3---------6-------------6-------4---------|
|-1---------4-------------------------------|


F5 G#5 Eb5
S T T S S S T T S S S S S S T T T T T T T T
|-4-8-6-8---8-11-8-11-----------6-9-8-6-4-3-4-6-8-|
|---------9-----------11----8-9-------------------|
|------------------------10-----------------------|
|-------------------------------------------------|
|-------------------------------------------------|
|-------------------------------------------------|
|
| Q Q H
|-------------------------------------------------|
|-------------------------------------------------|
|-------------------------------------------------|
|-3---------6-------------8-----------------------|
|-3---------6-------------6-----------------------|
|-1---------4-------------------------------------|


F5 G#5 Eb5 C#5
S T T S S S T T S S S S S S S T T S S
|---8-6-8---8-11-8-11-----------6---3-1-4-1--|
|-9-------9-----------11----8-9---6----------|
|------------------------10------------------|
|--------------------------------------------|
|--------------------------------------------|
|--------------------------------------------|
|
| Q Q Q Q
|--------------------------------------------|
|--------------------------------------------|
|--------------------------------------------|
|-3---------6-------------8-------6----------|
|-3---------6-------------6-------4----------|
|-1---------4--------------------------------|


F5 G#5 Eb5
S T T S S S T T S S S S S S T T T T T T T T
|-4-8-6-8---8-11-8-11-----------6-8-6-4-3---3-4-6-|
|---------9-----------11----8-9-----------4-------|
|------------------------10-----------------------|
|-------------------------------------------------|
|-------------------------------------------------|
|-------------------------------------------------|
|
| Gtr II
| W
|-------------------------------------------------|
|-------------------------------------------------|
|-------------------------------------------------|
|-------------------------------------------------|
|-------------------------------------------------|
|-------------------------------------------------|
|
| Gtr III
| Q Q H
|-------------------------------------------------|
|-------------------------------------------------|
|-------------------------------------------------|
|-3---------6-------------8-----------------------|
|-3---------6-------------6-----------------------|
|-1---------4-------------------------------------|


Chorus
F5 C#5
~~~~~~~~~~~~~~~~
Q Q Q Q H Q E E
|--------------|----------------|
|-----1--2--4--|-2----2b4--2-4--|
|--------------|----------------|
|--3-----------|----------------|
|--------------|----------------|
|--------------|----------------|
|
| ~~~~~~~~~~~~~~~~
| Q Q Q Q H Q E E
|--------1--3--|-1----1b3--1-3--|
|-----4--------|----------------|
|--1-----------|----------------|
|--------------|----------------|
|--------------|----------------|
|--------------|----------------|
|
| W W
|--------------|----------------|
|--------------|----------------|
|-10-----------|-6--------------|
|-10-----------|-6--------------|
|--8-----------|-4--------------|
|--------------|----------------|


F5 Eb5 F5
Q Q H
|-14b16-----------15-----------14b16-----------------------|
|----------------------------------------------------------|
|----------------------------------------------------------|
|----------------------------------------------------------|
|----------------------------------------------------------|
|----------------------------------------------------------|
|
| Q Q H
|----------------------------------------------------------|
|----------------------------------------------------------|
|-15b17-----------15-----------15b17-----------------------|
|----------------------------------------------------------|
|----------------------------------------------------------|
|----------------------------------------------------------|
|
| S S T T T T S S T T T T S S T T T T S S T T T T
|----------------------------------------------------------|
|----------------------------------------------------------|
|------------------3-3-3-3-3-3-----------------------------|
|--3----3----------1-1-1-1-1-1--3----3---------3-3---------|
|--3----3-3-3-3-3---------------3----3-3-3-3-3-3-3-3-3-3-3-|
|--1----1-1-1-1-1---------------1----1-1-1-1-1-1-1-1-1-1-1-|


F5 C#5 Eb5 G#5 Eb5 F5
E. E S S E S S E S S S S S S E S S H +S
|-16--15---16-18-16---15-13-15-13-15----|---------------------------------------|
|---------------------------------------|----11-13------------------------------|
|------------------------------------13-|-13-------13b15---13-12-13-----(13)----|
|---------------------------------------|---------------------------------------|
|---------------------------------------|---------------------------------------|
|---------------------------------------|---------------------------------------|
|
| E. E S S E S S E S S S W
|---------------------------------------|---------------------------------------|
|---------------------------------------|---------------------------------------|
|-17--15---17-18-17---15-13-15-13-15----|---------------------------------------|
|---------------------------------------|---------------------------------------|
|---------------------------------------|---------------------------------------|
|---------------------------------------|---------------------------------------|
|
| Q Q H Q Q H
|---------------------------------------|---------------------------------------|
|---------------------------------------|---------------------------------------|
|---------------------------------------|---------------------------------------|
|--------6----------8-------------------|--6-------------8----------3-----------|
|--3-----4----------6-------------------|--6-------------6----------3-----------|
|--1------------------------------------|--4------------------------1-----------|


F5 C#5 Eb5
Q Q E. T T Q
|-11b13--11b13--11---9--8-6--|
|----------------------------|
|----------------------------|
|----------------------------|
|----------------------------|
|----------------------------|
|
| Q Q E. T T Q
|----------------------------|
|----------------------------|
|----------------------------|
|-13b15--13b15--13--11-10-8--|
|----------------------------|
|----------------------------|
|
| Q Q H
|----------------------------|
|----------------------------|
|---------6------8-----------|
|--3------6------8-----------|
|--3------4------6-----------|
|--1-------------------------|


Eb5 E5 C/E F5 F5 Eb5
|-3-| |-3-| |-3-| |-3-| |-3-| |-3-| |-3-| |-3-|
S S S S S S S S S S S S S S S S S S S S S S S S E E E E Q Q
|-------------------------0-1-3-4-3-1--0-1-3-4-3---|-18b20-18-17-18-17------|
|-4-6-8-9-8-6-4-6-8-9-8-6------------------------4-|--------------------18--|
|--------------------------------------------------|------------------------|
|--------------------------------------------------|------------------------|
|--------------------------------------------------|------------------------|
|--------------------------------------------------|------------------------|
|
| W W
|--------------------------------------------------|------------------------|
|--------------------------------------------------|------------------------|
|--------------------------------------------------|------------------------|
|--------------------------------------------------|------------------------|
|--------------------------------------------------|------------------------|
|--------------------------------------------------|------------------------|
|
| H Q Q H Q Q
|--------------------------------------------------|------------------------|
|--------------------------------------------------|------------------------|
|--------------------------------------------------|-10-------------10---8--|
|-8-----------------------9-----------10-----------|-10-------------10---8--|
|-6-----------------------7------------7-----------|--8--------------8---6--|
|--------------------------------------------------|------------------------|


C#5 Eb5/Bb F5 F5 Eb5 C#5 Eb5/Bb
E E E E Q Q E E E E Q Q E E E E Q Q
|-18b20-18-17-18-----15--|-18b20-18-17-18-17------|-18b20-18-17-18-----15--|
|----------------18------|--------------------18--|----------------18------|
|------------------------|------------------------|------------------------|
|------------------------|------------------------|------------------------|
|------------------------|------------------------|------------------------|
|------------------------|------------------------|------------------------|
|
| Gtr III
| H H H Q Q H H
|------------------------|------------------------|------------------------|
|------------------------|------------------------|------------------------|
|--6--------------8------|-10-------------10---8--|--6--------------8------|
|--6--------------8------|-10-------------10---8--|--6--------------8------|
|--4--------------6------|--8--------------8---6--|--4--------------6------|
|-----------------6------|------------------------|-----------------6------|


Eb5 E5 C/E
|--3--| |--3--| |--3--| |--3--| |--3--| |--3--| |--3--| |--3--|
S S S S S S S S S S S S S S S S S S S S S S S S
|-11-13-15-16-15-13-11-13-15-16-15-13-12-13-15-16-15-13-12-13-15-16-15-13-|
|-------------------------------------------------------------------------|
|-------------------------------------------------------------------------|
|-------------------------------------------------------------------------|
|-------------------------------------------------------------------------|
|-------------------------------------------------------------------------|
|
| H Q Q
|-------------------------------------------------------------------------|
|-------------------------------------------------------------------------|
|-------------------------------------------------------------------------|
|--8-----------------------------------9----------------10----------------|
|--6-----------------------------------7-----------------7----------------|
|-------------------------------------------------------------------------|


Interlude
F5 Eb5 D5 Bb5 Bb5 C5
E S S E E E. S Q E S S E S S E E E E
|--------------------8----|---------------4b6-8-6----|
|--6-6-8-9-11b13-11----6--|--6--6-8-9-8-6---------8--|
|-------------------------|--------------------------|
|-------------------------|--------------------------|
|-------------------------|--------------------------|
|-------------------------|--------------------------|
|
| Q Q Q Q +H Q Q
|-------------------------|--------------------------|
|-------------------------|--------------------------|
|-10-----8--------7----3--|-(3)-----------3-----5----|
|-10-----8--------7----3--|-(3)-----------3-----5----|
|--8-----6--------5----1--|-(1)-----------1-----3----|
|-------------------------|--------------------------|


F5 Eb5 D5 Bb5 Bb5 C5 F5 Eb5 D5 Bb5
E S S E E E. S Q E S S E S S E E E E E S S E E E. S Q
|------3-4-6b8-6--8----|-------3-4-3-1-4b6-8-6---|------3-4-6b8-6--8----|
|--6-6--------------6--|--6--6-----------------8-|--6-6--------------6--|
|----------------------|-------------------------|----------------------|
|----------------------|-------------------------|----------------------|
|----------------------|-------------------------|----------------------|
|----------------------|-------------------------|----------------------|
|
| Q Q Q Q +H Q Q Q Q Q Q
|----------------------|-------------------------|----------------------|
|----------------------|-------------------------|----------------------|
|-10-----8-----7----3--|-(3)-----------3-----5---|-10-----8-----7----3--|
|-10-----8-----7----3--|-(3)-----------3-----5---|-10-----8-----7----3--|
|--8-----6-----5----1--|-(1)-----------1-----3---|--8-----6-----5----1--|
|----------------------|-------------------------|----------------------|


Bb5 C5 F5 Eb5 D5 Bb5
E S S E S S E E E E E S S E E E. S Q
|-------3-4-3-1-4b6-------8-------6---------------|------3-4-6b8-6--8----|
|--6--6-----------------------------------8-------|--6-6--------------6--|
|-------------------------------------------------|----------------------|
|-------------------------------------------------|----------------------|
|-------------------------------------------------|----------------------|
|-------------------------------------------------|----------------------|
|
| +H T T T T T T T T T T T T T T T T Q Q Q Q
|-------------------------------------------------|----------------------|
|-------------------------------------------------|----------------------|
|-(3)---------------------------------------------|-10-----8-----7----3--|
|-(3)-----------3---3-3-3-3-3-3-3-5-5-5-5-5-5-5-5-|-10-----8-----7----3--|
|-(1)-----------1---1-1-1-1-1-1-1-3-3-3-3-3-3-3-3-|--8-----6-----5----1--|
|-------------------------------------------------|----------------------|


Bb5 C5
E S S E S S E E E E
|-------3-4-3-1-4b6-------8-------6------------------|
|--6--6-----------------------------------8----------|
|----------------------------------------------------|
|----------------------------------------------------|
|----------------------------------------------------|
|----------------------------------------------------|
|
| +H T T T T T T T T T T T T T T T T
|----------------------------------------------------|
|----------------------------------------------------|
|-(3)------------------------------------------------|
|-(3)-----------3---3-3-3-3-3-3-3-5-5-5-5-5-5-5-5----|
|-(1)-----------1---1-1-1-1-1-1-1-3-3-3-3-3-3-3-3----|
|----------------------------------------------------|


Outro
F5 C5 C#5 Eb5 C#5 F5 C5
E S S E E E. S Q E S S E S S E E E E E S S E E E. S Q
|------3-4-6b8-6--8----|-----3-4-3-1-4b6-8-6---|------3-4-6b8-6--8----|
|--6-6--------------6--|-6-6-----------------8-|--6-6--------------6--|
|----------------------|-----------------------|----------------------|
|----------------------|-----------------------|----------------------|
|----------------------|-----------------------|----------------------|
|----------------------|-----------------------|----------------------|
|
| H H H Q Q H H
|----------------------|-----------------------|----------------------|
|----------------------|-----------------------|----------------------|
|-10-----------5-------|-6-----------8-----6---|-10-----------5-------|
|-10-----------5-------|-6-----------8-----6---|-10-----------5-------|
|--8-----------3-------|-4-----------6-----4---|--8-----------3-------|
|----------------------|-----------------------|----------------------|


C#5 Eb5 C#5 F5 C5 C#5 Eb5 C#5 F5 C5
E S S E S S E E E E H H H Q Q H H
|-----3-4-3-1-4b6-8-6---|--6b8---------|------9b11--9--|--6b8---------|
|-6-6-----------------8-|---------8----|-9-------------|---------8----|
|-----------------------|--------------|---------------|--------------|
|-----------------------|--------------|---------------|--------------|
|-----------------------|--------------|---------------|--------------|
|-----------------------|--------------|---------------|--------------|
|
| H Q Q H H H Q Q H H
|-----------------------|--------------|---------------|--------------|
|-----------------------|--------------|---------------|--------------|
|-6-----------8-----6---|-10------5----|-6----8-----6--|-10------5----|
|-6-----------8-----6---|-10------5----|-6----8-----6--|-10------5----|
|-4-----------6-----4---|--8------3----|-4----6-----4--|--8------3----|
|-----------------------|--------------|---------------|--------------|


C#5 Eb5 C#5 F5 C5 C#5 Eb5 C#5 F5 C5
H Q Q H H H Q Q H H
|------9b11--9--|--6b8---------|------9b11--9--|--6b8---------|
|-9-------------|---------8----|-9-------------|---------8----|
|---------------|--------------|---------------|--------------|
|---------------|--------------|---------------|--------------|
|---------------|--------------|---------------|--------------|
|---------------|--------------|---------------|--------------|
|
| H Q Q H H H Q Q H H
|---------------|--------------|---------------|--------------|
|---------------|--------------|---------------|--------------|
|-6----8-----6--|-10------5----|-6----8-----6--|-10------5----|
|-6----8-----6--|-10------5----|-6----8-----6--|-10------5----|
|-4----6-----4--|--8------3----|-4----6-----4--|--8------3----|
|---------------|--------------|---------------|--------------|


C#5 Eb5 C#5 F5 C5 C#5 Eb5 C#5 F5 C5
H Q Q H H H Q Q H H
|------9b11--9--|--6b8---------|------9b11--9--|--6b8---------|
|-9-------------|---------8----|-9-------------|---------8----|
|---------------|--------------|---------------|--------------|
|---------------|--------------|---------------|--------------|
|---------------|--------------|---------------|--------------|
|---------------|--------------|---------------|--------------|
|
| H Q Q H H H Q Q H H
|---------------|--------------|---------------|--------------|
|---------------|--------------|---------------|--------------|
|-6----8-----6--|-10------5----|-6----8-----6--|-10------5----|
|-6----8-----6--|-10------5----|-6----8-----6--|-10------5----|
|-4----6-----4--|--8------3----|-4----6-----4--|--8------3----|
|---------------|--------------|---------------|--------------|


C#5 Eb5 C#5 F5 C5 C#5 Eb5 C#5 F5 C5
H Q Q H H H Q Q H H
|------9b11--9--|--6b8---------|------9b11--9--|--6b8---------|
|-9-------------|---------8----|-9-------------|---------8----|
|---------------|--------------|---------------|--------------|
|---------------|--------------|---------------|--------------|
|---------------|--------------|---------------|--------------|
|---------------|--------------|---------------|--------------|
|
| H Q Q H H H Q Q H H
|---------------|--------------|---------------|--------------|
|---------------|--------------|---------------|--------------|
|-6----8-----6--|-10------5----|-6----8-----6--|-10------5----|
|-6----8-----6--|-10------5----|-6----8-----6--|-10------5----|
|-4----6-----4--|--8------3----|-4----6-----4--|--8------3----|
|---------------|--------------|---------------|--------------|


C#5 Eb5 C#5 F5 C5 C#5 Eb5 C#5 F5 C5
H Q Q H H H Q Q H H
|------9b11--9--|--6b8---------|------9b11--9--|--6b8---------|
|-9-------------|---------8----|-9-------------|---------8----|
|---------------|--------------|---------------|--------------|
|---------------|--------------|---------------|--------------|
|---------------|--------------|---------------|--------------|
|---------------|--------------|---------------|--------------|
|
| H Q Q H H H Q Q H H
|---------------|--------------|---------------|--------------|
|---------------|--------------|---------------|--------------|
|-6----8-----6--|-10------5----|-6----8-----6--|-10------5----|
|-6----8-----6--|-10------5----|-6----8-----6--|-10------5----|
|-4----6-----4--|--8------3----|-4----6-----4--|--8------3----|
|---------------|--------------|---------------|--------------|


C#5 Eb5 C#5 F5 C5 C#5 Eb5 C#5 F5 C5
H Q Q H H H Q Q H H
|------9b11--9--|--6b8---------|------9b11--9--|--6b8---------|
|-9-------------|---------8----|-9-------------|---------8----|
|---------------|--------------|---------------|--------------|
|---------------|--------------|---------------|--------------|
|---------------|--------------|---------------|--------------|
|---------------|--------------|---------------|--------------|
|
| H Q Q H H H Q Q H H
|---------------|--------------|---------------|--------------|
|---------------|--------------|---------------|--------------|
|-6----8-----6--|-10------5----|-6----8-----6--|-10------5----|
|-6----8-----6--|-10------5----|-6----8-----6--|-10------5----|
|-4----6-----4--|--8------3----|-4----6-----4--|--8------3----|
|---------------|--------------|---------------|--------------|


C#5 Eb5 C#5 F5 C5 C#5 Eb5 C#5 F5 C5
H Q Q H H H Q Q H H
|------9b11--9--|--6b8---------|------9b11--9--|--6b8---------|
|-9-------------|---------8----|-9-------------|---------8----|
|---------------|--------------|---------------|--------------|
|---------------|--------------|---------------|--------------|
|---------------|--------------|---------------|--------------|
|---------------|--------------|---------------|--------------|
|
| H Q Q H H H Q Q H H
|---------------|--------------|---------------|--------------|
|---------------|--------------|---------------|--------------|
|-6----8-----6--|-10------5----|-6----8-----6--|-10------5----|
|-6----8-----6--|-10------5----|-6----8-----6--|-10------5----|
|-4----6-----4--|--8------3----|-4----6-----4--|--8------3----|
|---------------|--------------|---------------|--------------|


C#5 Eb5 C#5 F5 C5 C#5 Eb5 C#5
H Q Q H H H Q Q
|------9b11--9--|--6b8---------|------9b11--9--*|
|-9-------------|---------8----|-9-------------*|
|---------------|--------------|---------------*|
|---------------|--------------|---------------*|
|---------------|--------------|---------------*|
|---------------|--------------|---------------*|
|
| H Q Q H H H Q Q
|---------------|--------------|---------------*|
|---------------|--------------|---------------*|
|-6----8-----6--|-10------5----|-6----8-----6--*|
|-6----8-----6--|-10------5----|-6----8-----6--*|
|-4----6-----4--|--8------3----|-4----6-----4--*|
|---------------|--------------|---------------*|




--------------------------------------------------------------------------------


Duration Legend
---------------
W - whole; H - half; Q - quarter; E - 8th; S - 16th; T - 32nd; X - 64th; a - acciaccatura
+ - note tied to previous; . - note dotted; .. - note double dotted
Uncapitalized letters represent notes that are staccato (1/2 duration)
Irregular groupings are notated above the duration line
Duration letters will always appear directly above the note/fret number it represents the
duration for. Duration letters with no fret number below them represent rests. Multi-
bar rests are notated in the form Wxn, where n is the number of bars to rest for. Low
melody durations appear below the staff

Tablature Legend
----------------
h - hammer-on
p - pull-off
b - bend
pb - pre-bend
r - bend release (if no number after the r, then release immediately)
/ - slide into or out of (from/to "nowhere")
s - legato slide
S - shift slide
- natural harmonic
[n] - artificial harmonic
n(n) - tapped harmonic
~ - vibrato
tr - trill
T - tap
TP - trem. picking
PM - palm muting
n/ - tremolo bar dip; n = amount to dip
n - tremolo bar down
n/ - tremolo bar up
/n - tremolo bar inverted dip
= - hold bend; also acts as connecting device for hammers/pulls
<> - volume swell (louder/softer)
x - on rhythm slash represents muted slash
o - on rhythm slash represents single note slash

Misc Legend
-----------
| - bar
|| - double bar
||o - repeat start
o|| - repeat end
*| - double bar (ending)
: - bar (freetime)
$ - Segno
& - Coda
Tempo markers - = BPM(8/16=s8/s16), where s8 = swing 8ths, s16 = swing 16ths

-----------------------------
|  , ,   |
|     http://akords.org     |
-----------------------------

 (: 0)
    :
  • The Age Of False Innocence
  • For Those About To Rock
  • When Sorrow Sang
  • Born In A Mourning Hall
  • Rock N Roll Singer
  •  
    , . '.

    ':*
    E-Mail:*
    :
    , : *
     
      

    BLIBL-