|  
 
:  
  : :  
      ?    

  |

akords.org » B » Blind Guardian » And The Story Ends

Blind Guardian - And The Story Ends 

... AND THE STORY ENDS
BY BLIND GUARDIAN / MIRROR MIRROR (MAXI)

TRANSCRIBED BY : Dennis "SPEED OF LIGHT" Riedner

This song is worked out for the lead guitar (Andre Olbrich)
Here is only the tab, so if you want to play the song with your
Wah-Wah (as Andre does), figure it out yourself!


INTRO
e:---------------------------------------------------------------------------|
B:---------------A.H.--------------------A.H.-------------------A.H.---------|
G:---------/6-5-6-5//------------/6-5-6-5//-----------/6-5-6-5//-------|
D:----------------------7----------------------7----------------------7---|
A:---------------------------------------------------------------------------|
E:-2-2-2--------------------2-2-2-------------------2-2-2--------------------|
p.m. . . . . . . . .


CHORUS
e:--------------------|--------------------------------------------------|
B:--------------------|--------------------------------------------------|
G:--------------------|--------------------------------------------------|
D:6-6-6-5-6-6-6-5-6-6-|----------6-------7------------------------7------|
A:4-4-4-3-4-4-4-3-4-4-|--4---6---4---7---5--------------4---6---7-5--2--|
E:--------------------|--2-0-4-0---0-5-0----------------2-0-4-0-5-----0--|
p.m.. . . . . . . . . AND THE STORY ENDS...


LEAD 1
e:---------------------------------------------------------------------------|
B:----------------12-14--------------12-15-------------12-14---------------15|
G:---11--14p13h14--------11-14p13h14-------11-14p13h14-------11-14p13h14-----|
D:---------------------------------------------------------------------------|
A:---------------------------------------------------------------------------|
E:---------------------------------------------------------------------------|




e:-12-----------------------------|
B:----14~~Very-heavy-vib/shake!!!-|
G:--------------------------------|
D:--------------------------------|
A:--------------------------------|
E:--------------------------------|



PRE-CHORUS
e:-------------------------------2-----------2-------------------------------|
B:(14)---------------------------2-----------2-------------------------------|
G:-------------------------------2-----------2-------------------------------|
D:--------------------------7----4-----------4---------------------7--------9|
A:------------9---7---9-----5----4-----------4------9---7---9------5-----4--7|
E:------------7---5---7----------2-----------2------7---5---7------------2---|




e:-----------|
B:-----------|
G:-----------|
D:--7--------|
A:--5----12--|
E:-------10-|


LEAD 2
e:---------------------------------------------------------------------------|
B:--------------A.h.-----------------A.h.---------------A.h.-----------------|
G:--------/6-5-6-5~-----------/6-5-6-5~-----------/6-5-6-5~-----6-6-6-5-6-7--|
D:-------------------7-----------------7------------------7---------------|
A:---------------------------------------------------------------------------|
E:-2-2-2-----------------2-2-2--------------2-2-2----------------------------|
p.m. . . . . . . . . . . . . . .



e:---------------------------------------------------------------------------|
B:----------/14~-12-14-15fbr-14-12-14-12-10h12p10---------------12-12fb-12/|
G:(7)fbr5-----------------------------------------13--14~-13-14--------------|
D:---------------------------------------------------------------------------|
A:---------------------------------------------------------------------------|
E:---------------------------------------------------------------------------|




e:------------------------|
B:/-----12-------------12-|
G:---14----14-13h14p13----|
D:------------------------|
A:------------------------|
E:------------------------|



VERSE
e:---------------------------------------------------------------------------|
B:---------------------------------------------------------------------------|
G:-14~-----------------------------------------------------------------------|
D:-------2--4------7-----------/12-11-9~------------------------------------|
A:-------0--2--4---5--7--9--7X-------------------------------------0-0-0-0-0-|
E:-------------2------5--7--9X-------------2-2-2-2-2-2-2-2-2-2-2-2-----------|
p.m. . . . . . . . . . . . . . . . . .



e:---------------------------------------------------------------------------|
B:---------------------------------------------------------------------------|
G:---------------------------------------------------------------------------|
D:---------------------------------------------------------------------------|
A:0-0-0-0-0-0-0-2-2-2-2-2-2-2-2-2-2-2-2-------------------------5-5-5-5-5-5-5|
E:--------------------------------------0-0-0-0-0-0-0-0-0-0-0-0--------------|
p.m.. . . . . . . . . . . . . . . . . . . . . . . . . . . . . . . . . . . . .



e:--------------------------------------------------------------|
B:--------------------------------------------------------------|
G:--------------------------------------------------------------|
D:--------------------------------------------------------------|
A:-5-5-5-5-5-------------------------------------------------7~-|
E:-----------5-5-5-5-5-5-5-5-5-5-5-5-7-7-7-7-7-7-7-7-7-7-7-7-9--|
p.m. . . . . . . . . . . . . . . . . . . . . . . . . . . . .


LEAD 3
e:---------------------------------------------------------------------------|
B:-15-14~--------15-14~--------14-12~--12-14-15~-15-15-17-17FB--15-14~-------|
G:--------14------------14---------------------------------------------14----|
D:-----------16~-----------16~--------------------------------------------16~|
A:---------------------------------------------------------------------------|
E:---------------------------------------------------------------------------|




e:---------------------------------------------------|-------|
B:---------------14-12-12---------15-15-14-12--------|-------|
G:--------11-14~-----------14-12~-------------14-12-|-------|
D:--12-11~-------------------------------------------|----7--|
A:---------------------------------------------------|-4--5--|
E:---------------------------------------------------|-2-----|



SOLO
e:---------------------------------------------------------------------------|
B:---------------------------------------------------------------------------|
G:---11-12-9-11----9-11h12p11p9h11-12-9-11----9-11h12p11p9h11-12-9-11----9-11|
D:--------------12-------------------------12-------------------------12-----|
A:---------------------------------------------------------------------------|
E:---------------------------------------------------------------------------|

e:---------------------------------------------------------------------------|
B:--------------------------------------------------------15h17p15p14h15p14--|
G:h12p11p9h11-12-9-11----9-11h12p11p9-/11~--------11-12~--------------------1|
D:--------------------12-------------------14~-14----------------------------|
A:---------------------------------------------------------------------------|
E:---------------------------------------------------------------------------|

e:---------------------------------------------------------------------------|
B:--14----------------------------------------/12-12~-11h12p11~--/9~-9h10p9-|
G:6----16p14-12h14p12~~~--11h12p11~-11h12p11~--------------------------------|
D:---------------------------------------------------------------------------|
A:---------------------------------------------------------------------------|
E:---------------------------------------------------------------------------|

e:---------12-10~------------------------------------------------------------|
B:----------------12-14~-----------------------------------------------------|
G:9--11-12----------------/11-12----12~-11-12----12-12-14-12~-/11-12----12~|
D:-------------------------------14------------14----------------------14----|
A:---------------------------------------------------------------------------|
E:---------------------------------------------------------------------------|




e:------------------------------------|
B:------------------------------------|
G:-/11-12----11h12p11----12h14p12-9-|
D:---------14----------14-------------|
A:------------------------------------|
E:------------------------------------|

e:---------------------------------------------------------------------------|
B:---------------------------------------------------------------------------|
G:-11h12p11-9-11~----------------------------11-11-11-12-11h12p11-8-9~---9-11|
D:----------------11-11-11-12-11h12p11-9-11~---------------------------------|
A:---------------------------------------------------------------------------|
E:---------------------------------------------------------------------------|




e:------------------------------|
B:----12-10h12p10--8-10-8-------|
G:-12---------------------11-12-|
D:------------------------------|
A:------------------------------|
E:------------------------------|

e:--------9--------------------9---------------------9------------------10-9-|
B:--10------12-10h12p10-9-10-----12-10h12p10-9-10------12-10h12p10-9-12------|
G:-----11--------------------11-------------------11-------------------------|
D:---------------------------------------------------------------------------|
A:---------------------------------------------------------------------------|
E:---------------------------------------------------------------------------|




e:--------------|-----------------------|
B:12-10h12p10-9-|-----------------------|
G:--------------|-11~~~-Heavy-vibshake!-|
D:--------------|-----------------------|
A:--------------|-----------------------|
E:--------------|-----------------------|



CODA
e:----------------12-12fbr---------------------------------------------------|
B:---------------------------------12-14-15--14-12-14h15-12-14h15-12-14h15-12|
G:------11~-13-14----------14~--12-------------------------------------------|
D:---------------------------------------------------------------------------|
A:---------------------------------------------------------------------------|
E:---------------------------------------------------------------------------|




e:--------------------------14~b----(14)-|
B:----------------------------------------|
G:--14vibratofalloff!-(13)~---------------|
D:----------------------------------------|
A:----------------------------------------|
E:----------------------------------------|

INTRO :

Listen to the song to get the right timing!
Be carefull at the harmonized notes!


SOLO :

Very easy...but correct! (I would say so, coz I saw this song live,
and watched at Andre's guitar!)

-----------------------------
|  , ,   |
|     http://akords.org     |
-----------------------------

 (: 0)
    :
  • Imaginations From The Other Side
  • Welcome To Dying
  • Mirror Mirror
  • Mirror Mirror
  • The Hobbit
  •  
    , . '.

    ':*
    E-Mail:*
    :
    , : *
     
      

    BLIBL-