|  
 
:  
  : :  
      ?    

  |

akords.org » B » Blind Guardian » A Past And Future Secret

Blind Guardian - A Past And Future Secret 

i searched all over for this in chords and couldnt find it so i did it my self
using what i saw in other tabs to start me off, enjoy. :P


A past and future secret- blind guardian
Cappo 2

Main riff

^Sweep down ^ sweep down
E|-0----7-h8p-7----5----7----3----5----0----2--3--2----0-------------------------------|
B|-0---------------------------------------0-------------------------3-----------------|
G|-0---------------------------------------0------------------------------4----4-------|
D|-2---------------------------------------2-------------------------------------------|
A|-2---------------------------------------2-------------------------------------------|
E |-0---------------------------------------0------------------------------------------|

Em D Em
Oh, I haven't been here for a while
Em D C
Am D
in blindness and decay the circle's been closed, now


C Am D
My song of the end
C Am D
My song of the end I've seen it all

Em D
Listen crowd
Em D
I'll tell you everything
Em D
though I have to say
Bm C
I don't know much
Em D
talking about a past
Em D
and future secret
Em D
most called him once
Bm C
and future king
Em D
far back in the past
Em D
I saw his ending
Em D
long before it started
Bm C
I knew his name
Em D
he's the one who took the sword
Em
out of the stone
D Bm C
it's how that ancient tale began
Am D
I hear it in the cold winds


C Am D
My song of the end
C Am D
My song of the end I had seen it in my dreams
C Am D
My song of the end I can't stop the darkening clouds

Em D
I feel cold
Em
when I cry out for the bark
D Em
take him back to Avalon
Em D Em
dwell on for a new age
Em D Em
so long sleep well my friend
D Em
take him back to Avalon
Em D
I will wait and guard
Em D Em
the future king's crown


C Am D
My song of the end
C Am D
My song of the end it was nice but now it's gone
C Am D
My song of the end
C Am D
My song of the end it was fixed the whole time
C Am D
My song of the end
C Am D
My song of the end I've seen it all

-----------------------------
|  , ,   |
|     http://akords.org     |
-----------------------------

 (: 0)
    :
  • Past And Future Secret
  • A Past And Future Secret
  • Dont Leave Me
  • Solace
  • I Have A Dream (2 )
  •  
    , . '.

    ':*
    E-Mail:*
    :
    , : *
     
      

    BLIBL-