Зробити стартовою  |  Додати в вибране
 
Пошук по сайту:  
  логін: пароль:  
    Реєстрація на сайті   Нагадати пароль?    

Видавництво Симфонія | Книжкова фабрика

akords.org » B » Black Sabbath » Children Of The Grave
Знайти необхідні акорди

Black Sabbath - Children Of The Grave 3 табулатура

This is the right way to play this,cause no one can seem to get it even remotly close.


Intro/Main Riff x2
|--------------------------------------------------------------------------|
|--------------------------------------------------------------------------|
|--------------------------------------------------------------------------|
|--------------------------------------------------------------------------|
|11---11-11-11-11----11-11-11-11----11-11-11-11----7-6---------------------|
|9----9--9--9--9-----9--9--9--9-----9--9--9--9-----5-4---------------------|

Riff 2 x1
|--------------------------------------------------------------------------|
|--------------------------------------------------------------------------|
|--------------------------------------------------------------------------|
|46--7----2---2-2-4---4---------------------------------------------------|
|24--9----0---0-0-2---2---------------------------------------------------|
|--------------------------------------------------------------------------|


Verse guitar 1
|--------------------------------------------------------------------------|
|--------------------------------------------------------------------------|
|--------------------------------------------------------------------------|
|--------------------------------------------------------------------------|
|11---11-11-11-11----11-11-11-11----11-11-11-11----7-----------------------|
|9----9--9--9--9-----9--9--9--9-----9--9--9--9-----5-----------------------|

Verse guitar 2                                bend
|---------------------------------------------12---------------------------|
|--------------------------------------------------------------------------|
|--------------------------------------------------------------------------|
|--------------------------------------------------------------------------|
|11---11-11-11-11----11-11-11-11----11-11-11-11----------------------------|
|9----9--9--9--9-----9--9--9--9-----9--9--9--9-----------------------------|

Play however many times

Other riff
|--------------------------------------------------------------------------|
|--------------------------------------------------------------------------|
|--------------------------------------------------------------------------|
|--------------11----------------------------------------------------------|
|-----8-9-10-11---------8-9-10-9-8-----------------------------------------|
|8-11---------------8-11---------------------------------------------------|

Other riff 2
|--------------------------------------------------------------------------|
|--------------------------------------------------------------------------|
|--------------------------------------------------------------------------|
|--------------------------------------------------------------------------|
|7--10--7--5--4--234-----------------------------------------------------|
|5--8---5--3--2--456-----------------------------------------------------|

-----------------------------
|  акорди, навчання, відео  |
|     http://akords.org     |
-----------------------------

 (голосів: 0)
   Інші пісні:
  • Lets Get It Started
  • Rock Show
  • Walk On Wate
  • Iron Man
  • Fly On The Wall
  •  
    Шановний відвідувач, Ви зайшли на сайт як незареєстрований користувач. Ми рекомендуємо Вам реєструватися або зайти на сайт під своїм ім'ям.

    Додавання коментаря

    Ім'я:*
    E-Mail:*
    Коментар:
    Введіть два слова, показані на зображенні: *
     
      

    BLIBL-створити сайт безкоштовно