|  
 
:  
  : :  
      ?    

  |

akords.org » B » Black Sabbath » Call Of The Wild

Black Sabbath - Call Of The Wild 

Call Of The Wild
Black Sabbath - Headless Cross (1989)
| *1&2* || **3**
3|--4--6------2-----/6--4---4--6----------||--------2-------
4|--4--6------2-----/6--4---4--6------2---||------2-2-------
5|--2--4----0---00----------2--4--4-2---4-||--4-2---0-------

"in this last and final hour..."
2|--------------------------------------------5-4-----------
3|-6----------------4---6-----------4--2--6-------4---------
4|-6----------------4---6-----------4--2--6---------4-2-----
5|-4----------------2---4-----------2--0--4-----------------

"its the call of the wild"
4|---4-3-4-3h4p3---3--4--------4-3-4-3h4p3------------------
5|-2-------------5-----------2-------------5--4-------------
6|-----------------------------------------------4-3-2------

"calling you, hero..."
3|--7------4--6------2-----/6--4--4--6----------------------
4|--7--7---4--6------2-----/6--4--4--6-------2--------------
5|--5--7---2--4----0---0-0--------2--4---4-2---4------------
6|-----5----------------------------------------------------


2|-----6-----6-----6-----6-----6----------------------------
3|---7-----7-----7-----7-----7------------------------------
4|-0-----0-----0-----0-----0--------------------------------


1|-------8--5-----------------------------------------------
2|-----6------6----------------8--6-------------------------
3|---7----------7-----5-7-8----------75-7------------------

(in background)
1|-----------------------13-12-10---------------------------
2|-13^---13^p10-13^-13^-----------13-10---------------------
3|--------------------------------------12^-----------------


3|-2-----2-------------2-----2--------------3---------------
4|-2-----2-------------2-----2------------3-----------------
5|-0-----0-------/3-1--0-----0-------/3-1-------------------
6|----3~-----0-1----------3~-----0-1------------------------
Solo:
1|----------10----------------------------------------------
2|-13^-13^-----13-10----------------------------------------
3|-------------------12-10----12^-10------------------------
4|-------------------------12--------12--10-----------------
5|------------------------------------------1210-^^p8------
6|-----------------------------------------------------10---


2|---------------------------------13-15^---^^p13-15--------
3|-------------------------10-12/14-------------------------
4|-------------------10-12----------------------------------
5|------8-10p8-10/12----------------------------------------
6|-8-10-----------------------------------------------------


2|-13----------13^^p10--------------------------------------
3|----14p12-14---------12^---^^p10----------------10--------
4|---------------------------------12------10h12-----12-----
1|--------------------------15^----13-12----13-12-----------
2|---------------------------------------15-------15--------
3|-12^-12-10-------------10---------------------------------
4|-----------12----10h12------------------------------------


2|-18p17p15-13p15h13-10h13p10h13------------------------------
3|------------------------------12p10h12p10h12p10-------------
4|------------------------------------------------10h12p10h12-


1|-----------------------------------------------15^---15-17
2|-----------------------------------------13-15------------
3|--------------------------------10-12/14------------------
4|--------------------------10/12---------------------------
5|-10h12p108--8-10/12-10h12--------------------------------
6|-----------10---------------------------------------------

1|-17-20^-20^-20^--^^^p17-22^^^22---------13-12-------10----
2|-----------------------------------/15-------15-13^------


2|-13p10----------------------------------------------------
3|------------------10----------12^p10----10----------10----
4|-------12---10h12----12-10-12--------12----12-10h12-------

"fear of the devil..."
2|-------13-15^-^p14----------------------------------------
3|-12/14-----------6-------------4--6-----------------------
4|-----------------6-------------4--6-----------------------
5|-----------------4-------------2--4-----------------------

-----------------------------
|  , ,   |
|     http://akords.org     |
-----------------------------

 (: 0)
    :
  • Call Of The Wild
  • Sleeping Village
  • Warning
  • Iron Man
  • Paranoid
  •  
    , . '.

    ':*
    E-Mail:*
    :
    , : *
     
      

    BLIBL-