Зробити стартовою  |  Додати в вибране
 
Пошук по сайту:  
  логін: пароль:  
    Реєстрація на сайті   Нагадати пароль?    

Видавництво Симфонія | Книжкова фабрика

akords.org » B » Black Sabbath » Bit Of Finger Sleeping Village
Знайти необхідні акорди

Black Sabbath - Bit Of Finger Sleeping Village  табулатура

================================================================================
         Title : A Bit Of Finger/Sleeping Village
        Artist : Black Sabbath
         Album : Black Sabbath
================================================================================


E|--------------------------|-----------------------0--|
B|--------------------------|--------------------0-----|
G|-----------------0--------|-----------------0--------|
D|--------4-----4-----4-----|--------4-----4-----------|
A|-----7-----7-----------7--|-----7-----7--------------|
E|--0-----------------------|--0-----------------------|

-----------------------------
|  акорди, навчання, відео  |
|     http://akords.org     |
-----------------------------

 (голосів: 0)
   Інші пісні:
  • Sleeping Village
  • Orchid
  • Black Sabbath Live
  • Spiral Architect
  • Sabbath Bloody Sabbath
  •  
    Шановний відвідувач, Ви зайшли на сайт як незареєстрований користувач. Ми рекомендуємо Вам реєструватися або зайти на сайт під своїм ім'ям.

    Додавання коментаря

    Ім'я:*
    E-Mail:*
    Коментар:
    Введіть два слова, показані на зображенні: *
     
      

    BLIBL-створити сайт безкоштовно