Зробити стартовою  |  Додати в вибране
 
Пошук по сайту:  
  логін: пароль:  
    Реєстрація на сайті   Нагадати пароль?    

Видавництво Симфонія | Книжкова фабрика

akords.org » B » Black Sabbath » Ancient Warrior
Знайти необхідні акорди

Black Sabbath - Ancient Warrior  табулатура

   Black Sabbath -  Ancient Warrior  -  The Eternal Idol 1987

   Tabed by Smitty370
       
   Tuning - I'm not sure but it sound like it's Tuned a step and 1/2



 c# |------------------------------------------------------------------|
 G# |------------------------------------------------------------------|
 B  |------------------------------------------------------------------|
 E  |------------------------------------------------------------------|
 F# |-10-----9-----7-----7-----7-9-----10-----9-----7--------0--------|
 C# |----0-0---0-0---0-0---0-0-----10-----0-0---0-0-----0-2-3---3-2-0--|


|----------------------------------------------------------|
|----------------------------------------------------------|
|----------------------------------------------------------|
|---------6------------------------6----------7------------|
|---7p6-7---7-6-6--7---------7p6-7---7-6-6--7---5~---------|
|-0------------------0000000-------------------------------|


|------------------------------------------------------------------|
|------------------------------------------------------------------|
|--------------9-----9--------------------------9-----------------|
|--------------9-----9--------------------------9-----------------|
|-10-----9-----7-----7-----7-9-----10-----9-----7--------0--------|
|----0-0---0-0---0-0---0-0-----10-----0-0---0-0-----0-2-3---3-2-0--|


|---------------------------------------------------------------|
|---------------------------------------------------------------|
|------------------9-8----8-8p7---------------------------------|
|---------4-5-4---------9-------9-7---------------------5p4-----|
|-0h3h5-2---------------------------10-----5-6-7------------5-7-|
|---------------0--------------------------------000000---------|


|---------------------------------------------|
|---------------------------------------------|
|------------------------------------4-3------|
|-0----------------------0--1-----------------|
|---------------------------------------------|
|---------------------------------------------|

-----------------------------
|  акорди, навчання, відео  |
|     http://akords.org     |
-----------------------------

 (голосів: 0)
   Інші пісні:
  • The Eternal Idol
  • Scarlet Pimpernel
  • Symptom Of The Universe
  • After Forever
  • Black Sabbath
  •  
    Шановний відвідувач, Ви зайшли на сайт як незареєстрований користувач. Ми рекомендуємо Вам реєструватися або зайти на сайт під своїм ім'ям.

    Додавання коментаря

    Ім'я:*
    E-Mail:*
    Коментар:
    Введіть два слова, показані на зображенні: *
     
      

    BLIBL-створити сайт безкоштовно