|  
 
:  
  : :  
      ?    

  |

akords.org » B » Black Eyed Peas » Pump It

Black Eyed Peas - Pump It 2

From: "TALAL"
Subject: TAB: Pump It
by The Black Eyed Peas


Tabed by:

TALAL ck
ANNABA
ALGERIA
e-mail: talalCK@walla.com

If there are comments or corrections,mail me.


This is a very pretty greek/middle eastern sounding piece which
is really an American piece written in the 1950's for folkdancers.
It accompanies the dance "MISIRLOU", usually done in 9/8.

Dick Dale and the Del-Tones popularized Miserlou in 1962. Recently, the Pulp
Fiction soundtrack introduced another generation to the tune and now the black
eyed peace.


the REAL intro: Very simple and Easy...

Tempo: Presto con huevos!
(Doublepick all guitar passages unless otherwise indicated.)
E|-----------||----------|------------|---------|--------|
B|-----------||----------|------------|---------|--------|
G|--only the-||----------|------------|---------|--------|
D|-first-----||----------|------------|---------|--------|
A|----time---||----------|------------|---------|--------|
E|-0-0-0-0-0-||0-0h1-4-5-|-7-7h8-11-8-|-7-7-7-7-|7-7-s-0-|


E|-----------|------------|---------|---------|
B|-----------|------------|---------|---------|
G|-----------|------------|---------|---------|
D|-----------|------------|---------|---------|
A|-----------|------------|---------|---------|
E|-0-0h1-4-5-|-7-7h8-11-8-|-7-7-7-7-|-7-7-7-7-|


E|-----------|-----------|---------|---------|
B|-----------|-----------|---------|---------|
G|-----------|-----------|---------|---------|
D|-----------|-----------|---------|---------|
A|-----------|-----------|---------|---------|
E|-8-7h8-7-5-|-7-5h7-5-1-|-4-4-4-4-|-4-4-4-4-|

1pick
E|-------------|-----------|---------||
B|-------------|-----------|---------||
G|-------------|-----------|---------||
D|-------------|-----------|---------||
A|-------------|-----------|---------||
E|-5h8-7h8-7-5-|-7-5h7-5-#-|-1-4-0-0-||

trumpet solo (2pick all, or 1pick vibrato & 2pick trills):

E|-----------------|-----|----------|-----|---------|---------|
B|-----------------|-----|----------|-----|---------|---------|
G|-----------------|-----|----------|-----|---------|---------|
D|-----------------|-----|----------|-----|---------|---------|
A|-----------------|-0===|==------0-|-2===|==-#-0h2-|-3==-2h3-|
E|-#-0-1-3-4-0-1-3-|-----|---55p4---|-----|---------|---------|


E|-------|-----|-----|---------------|-----------------|-----|
B|-------|-----|-----|---------------|-----------------|-----|
G|-------|-----|-----|---------------|-----------------|-----|
D|-------|-----|-----|---------------|-----------------|-----|
A|-6==-6-|-7===|====-|-#-8p7h8-777-5-|-777-7p5h7-555-3-|-2===|
E|-------|-----|-----|---------------|-----------------|-----|


E|-----|--------------|---------|-------|-----------------|
B|-----|--------------|---------|-------|-----------------|
G|-----|--------------|---------|-------|-----------------|
D|-----|--------------|---------|-------|-----------------|
A|2===-|#-5p3h5-333-2-|-2-0-2-0-|-------|---------------0-|
E|-----|--------------|---------|-1-0==-|-0-1-3-4-0-1-3---|



That's it. If someone can fix up the lyrics, I'd appreciate it.

This is my first tab so if it's not good sorry.
Feel free to rate it as you like
Hope you enjoyed this , Stay tuned for my next one.

/

-----------------------------
|  , ,   |
|     http://akords.org     |
-----------------------------

 (: 0)
    :
  • Pump It
  • Pump It
  • Hole In The Sky
  • Birthday 6
  • Alive
  •  
    , . '.

     
      

    BLIBL-