Зробити стартовою  |  Додати в вибране
 
Пошук по сайту:  
  логін: пароль:  
    Реєстрація на сайті   Нагадати пароль?    

Видавництво Симфонія | Книжкова фабрика

akords.org » B » Black Eyed Peas » Lets Get Retarted
Знайти необхідні акорди

Black Eyed Peas - Lets Get Retarted  акорди

e:--5---3---1---0---|
B:--5---3---1---0---|
G:--5---5---2---1---|   
D:--7---5---3---2---|
A:--7---3---3---2---|
E:--5---3---1---0---|

e:--5---3---1---0---|
B:--5---3---1---0---|
G:--5---5---2---1---|   
D:--7---5---3---2---|
A:--7---3---3---2---|
E:--5---3---1---0---|


e:--5---3---1---0---|
B:--5---3---1---0---|
G:--5---5---2---1---|   
D:--7---5---3---2---|
A:--7---3---3---2---|
E:--5---3---1---0---|


e:--5---3---1---0---|
B:--5---3---1---0---|
G:--5---5---2---1---|   
D:--7---5---3---2---|
A:--7---3---3---2---|
E:--5---3---1---0---|


e:--5---3---1---0---|
B:--5---3---1---0---|
G:--5---5---2---1---|   
D:--7---5---3---2---|
A:--7---3---3---2---|
E:--5---3---1---0---|


e:--5---3---1---0---|
B:--5---3---1---0---|
G:--5---5---2---1---|   
D:--7---5---3---2---|
A:--7---3---3---2---|
E:--5---3---1---0---|

i do this just because they said its to short.......


By : MANGALOSH

-----------------------------
|  акорди, навчання, відео  |
|     http://akords.org     |
-----------------------------

 (голосів: 0)
   Інші пісні:
  • Lets Get Retarded
  • Lets Get Retarded
  • Flying
  • Lets Get It Started
  • I Gotta Feeling
  •  
    Шановний відвідувач, Ви зайшли на сайт як незареєстрований користувач. Ми рекомендуємо Вам реєструватися або зайти на сайт під своїм ім'ям.

    Додавання коментаря

    Ім'я:*
    E-Mail:*
    Коментар:
    Введіть два слова, показані на зображенні: *
     
      

    BLIBL-створити сайт безкоштовно