|  
 
:  
  : :  
      ?    

  |

akords.org » B » Black Eyed Peas » I Gotta Feeling

Black Eyed Peas - I Gotta Feeling 

Artist: Black Eyed Peas
Song: I Gotta Feeling
Album: The E.N.D

G: 320033
C: x32010
Em: 022000

Intro: G C Em C x2

Guitar 1:
G Gsus4 G C Csus2
e|------------------------------------------------------------------|
B|--3---3---3---3---1---1---0---0---1---1---1---1---1---1---1---1---|
G|--0---0---0---0---0---0---0---0---0---0---0---0---0---0---0---0---|
D|---------------------------------------------------------(0)------|
A|---------------------------------(3)------------------------------|
E|-(3)--------------------------------------------------------------|

Em Em7 C
e|------------------------------------------------------------------|
B|--0---0---0---0---0---0---0---0---1---1---1---1---1---1---1---1---|
G|--0---0---0---0---0---0---0---0---0---0---0---0---0---0---0---0---|
D|-------------------------(0)--------------------------------------|
A|---------------------------------(3)------------------------------|
E|-(0)--------------------------------------------------------------|

Guitar 2:
G C
e|------------------------------------------------------------------|
B|------------------------------------------------------------------|
G|------------------------------------------------------------------|
D|------------------------------------------------------------------|
A|----------------------------------3-3-3-3-3-3-3-3-3-3-3-3-3-3-3-2-|
E|--3-3-3-3-3-3-3-3-3-3-3-3-3-3-3-3---------------------------------|

Em C
e|------------------------------------------------------------------|
B|------------------------------------------------------------------|
G|------------------------------------------------------------------|
D|------------------------------------------------------------------|
A|----------------------------------3-3-3-3-3-3-3-3-3-3-3-3-3-3-3-2-|
E|--0-0-0-0-0-0-0-0-0-0-0-0-0-0-0-0---------------------------------|

Chorus:
G
I gotta feeling
C
That tonight’s gonna be a good night
Em
That tonight’s gonna be a good night
C
That tonight’s gonna be a good, good night

Chorus x3

G
Tonight’s the night, let’s live it up
C
I got my money, let’s spend it up
Em
Go out and smash it, like oh my God
C
Jump off that sofa, let’s get get off

G
I know that we’ll have a ball
C
If we get down and go out and just loose it all
Em
I feel stressed and I wanna let it go
C
Lets go way out, spaced out and losing all control

G
Fill up my cup, Mazal Tov
C
Look at her dancing, just take it off
Em
Lets paint the town, we’ll shut it down
C G
Let’s burn the roof, and then we’ll do it again

G
Let’s do it, let's do it, let’s do it
C
Let’s do it, and do it, and do it, let’s live it up
Em
And do it, and do it, and do it, do it, do it
C
Let’s do it, let's do it, let's do it

Chorus:
G
Cause I gotta feeling (woo hoo)
C
That tonight’s gonna be a good night
Em
That tonight’s gonna be a good night
C
That tonight’s gonna be a good, good night

Chorus

G
Tonight’s the night, (hey), let’s live it up (let’s live it up)
C
I got my money, (I'm paid), let’s spend it up (let’s spend it up)
Em
Go out and smash it, (smash it), like oh my God (like oh my God)
C
Jump out that sofa, (c'mon) let’s get get off
G
Fill up my cup, (drank) Mazal Tov (l'haim)
C
Look at her dancing, (move it, move it), just take it off
Em
Lets paint the town, (paint the town) we’ll shut it down (we'll shut it down)
C G
Let’s burn the roof, (the roof) and then we’ll do it again

G
Let's do it, let's do it, let's do it
C
Let's do it, and do it, and do it, let's live it up
Em
And do it, and do it, and do it, do it, do it
C
Let's do it, let's do it, let's do it

G
Here we come, here we go, we gotta rock
C
Easy come, easy go, now we on top
Em
Feel the shot, body rock, rock it don’t stop
C
Round and round, up and down, around the clock

G
Monday, Tuesday, Wednesday and Thursday
C
Friday, Saturday, Saturday to Sunday
Em
Get get get get get with us, you know what we say
C
Party every day, Pa-pa-party every day

Chorus x2


================
Acoustic Version
================

Here's how you can play it acoustic

G C
e|------------------------------------------------------------------|
B|--3---3---3---3---1---1---0---0---1---1---1---1---1---1---1---1---|
G|--0---0---0---0---0---0---0---0---0---0---0---0---0---0---0---0---|
D|------------------------------------------------------------------|
A|------------------------------------3---3---3---3---3---3---3---2-|
E|----3---3---3---3---3---3---3---3---------------------------------|
Em C
e|------------------------------------------------------------------|
B|--0---0---0---0---0---0---0---0---1---1---1---1---1---1---1---1---|
G|--0---0---0---0---0---0---0---0---0---0---0---0---0---0---0---0---|
D|------------------------------------------------------------------|
A|------------------------------------3---3---3---3---3---3---3---2-|
E|----0---0---0---0---0---0---0---0---------------------------------|


Here's a harder way to play it:

Gsus4: 320013
Csus2: x30010
Em7: 020000
C/B x20010

G Gsus4 G
I gotta feeling
C Csus2
That tonight’s gonna be a good night
Em Em7
That tonight’s gonna be a good night
C C/B
That tonight’s gonna be a good, good night

-----------------------------
|  , ,   |
|     http://akords.org     |
-----------------------------

 (: 0)
    :
  • I Gotta Feeling
  • I Gotta Feeling
  • Honey Dont
  • Honey Dont 3
  • Hot Acoustic
  •  
    , . '.

    ':*
    E-Mail:*
    :
    , : *
     
      

    BLIBL-