|  
 
:  
  : :  
      ?    

  |

akords.org » B » Black Eyed Peas » Dont Lie

Black Eyed Peas - Dont Lie 

----------------------------------------------------------------------------
DON'T LIE - Black Eyed Peas
----------------------------------------------------------------------------
Tabbed by: Shaun
Email: guitar_rocks78@hotmail.com

Capo 2nd fret



Intro (Guitar Part I):
e|---7--5--7--5--3-3--|
B|---8--7--8--7--5-5--|
G|--------------------|
D|--------------------|
A|--------------------|
E|--------------------|



Intro (Guitar Part II): G, C [x2]



Verse 1 (Guitar Part I):
e|---7--5--7--5--3-3--|
B|---8--7--8--7--5-5--|
G|--------------------|
D|--------------------|
A|--------------------|
E|--------------------|



Verse 1 (Guitar Part II):

G
Hey, baby my nose is getting big
Em C
I noticed it be growing when I been telling them fibs
G
Now you say your trust's getting weaker
Em C
Probably coz my lies just started getting deeper
G
And the reason for my confession is that I learn my lesson
Em C
And I really think you ought to know the truth
G
Because I lied and I cheated and I lied a little more
Em C
But after I did it I don't know what I did it for
G
I admit that I have been a little immature
Em C
F***ing with your heart like I was the predator
G
In my book of lies I was the editor
Em
And the author
C
I forged my signature
G
And now I apologise for what I did to you
Em
Cos what you did to me I did to you



Chorus (Guitar I has no part):
Em C G
No, no, no, no baby, no, no, no, no don't lie
Em C G
No, no, no, no, yeah, you know, know, know, know, you gotta try
Em
What you gonna do when it all comes out
C
When I really see you & what you're all about
Em C G
No, no, no baby, no, no, no, no don't lie
Em C G
Yeah, you know, you know, you know, you know, you know, you gotta try

-----------------------------
|  , ,   |
|     http://akords.org     |
-----------------------------

 (: 0)
    :
  • Shape Of My Heart 2
  • Crazy
  • Go
  • Shape Of My Heart 3
  • Easy Target
  •  
    , . '.

    ':*
    E-Mail:*
    :
    , : *
     
      

    BLIBL-