|  
 
:  
  : :  
      ?    

  |

akords.org » B » Bjork » Hyperballad

Bjork - Hyperballad 2

_________________
/ Bjrk / I think this song is about this very self-destructive
/ Hyper-Ballad / girl who has to deal with lots of problems in her life.
/ Post / She plays with the thought of committing suicide, and the
/________________/ only thing that keeps her safe (from herself) is her boy
friend, quite sad, but it always me in a calm, happy mood.

Intro:
| Eb | Bb/d | Cm | >4x


Verse:
| Eb | Bb/d | Cm | >8x ...then pause for 4 bars


Chorus:
| Eb | F | Gm | F |
>2x
| Eb | F | Gm | F/a | /


Interlude:
| Eb | Bb/d | Cm | >2x


Verse:
similar to previous


Chorus:
repeat the chorus for the rest of the song


*********
Chords:
the easiest way to play them would be to put on a capo on the 3rd fret:

(intro/verse) (chorus)
Eb Bb/d Cm Eb F Gm F/a
---0---------------- ---0-----2-----0-----2---
---1-----3-----1---- ---1-----3-----0-----3---
---0-----0-----2---- ---0-----2-----0-----2---
---2-----0-----2---- ---2-----0-----2-----0---
---3-----2-----0---- ---3-----------2-----0---
-------------------- ---------------0-----2---


- 9th /April /07
Just mail me at Maitinin@gmail.com with questions, comments and corrections!

-----------------------------
|  , ,   |
|     http://akords.org     |
-----------------------------

 (: 0)
    :
  • Dysentery Gary
  • New World
  • Who Is It Acoustic
  • Mope
  • Going Away To College
  •  
    , . '.

    ':*
    E-Mail:*
    :
    , : *
     
      

    BLIBL-