|  
 
:  
  : :  
      ?    

  |

akords.org » B » Beatles » All Together Now

Beatles - All Together Now 

--------------------------------------------------------------

THE BEATLES - ALL TOGETHER NOW (Lennon/McCartney) From YELLOW
SUBMARINE album. Released in the USA on January,
13th and in the UK on January 17th, 1969.

--------------------------------------------------------------

Tabbed by:PJVillanueva





This song was recorded in a single session (7:00 pm to 12:30
am) on May, 12th 1967, the following day in which BABY YOU'RE
A RICH MAN (B side of ALL YOU NEED IS LOVE) was recorded.
The Beatles were finishing SGT PEPPER's album and working on
MAGICAL MYSTERY TOUR and they'd also agreed to do an animated
film after their REVOLVER album song YELLOW SUBMARINE.
The song was considered rather trite by many when the record
was finally released. It was trite enough to be sung by huge
crowds on English football stadiums for several seasons, but
it was made so simple on purpose. John's harmonica is played
in a very nonchalant, almost childish, way and he plays also
a plastic sax with which he produces some fine humorous bits
(see 01:12-01:17). He also plays banjo and is quite involved,
being a song from Paul, though it's possible that the bridge,
which he sings, was his. Paul plays bass, two acoustic guitar
tracks and sings, Ringo plays drums and triangle and George
just handclaps and backing vocals, like the rest of people
they summoned in the studio. The long speeding tempo gives it
just what it needed to make it into a very funny and cheerful
demonstration. I've played this a lot of times and think that
anyone could sing it sometimes, provided they are able to get
loose enough, which I think it's not such a bad thing at all.





One, two, three, four
Can I have a little more
Five, six, seven, eight, nine, ten
I love you

A, B, C, D
Can I bring my friend to tea
E, F, G, H, I, J
I love you
Bom bom bom
Bom pa bom Sail the ship
Bom pa bom Chop the tree
Bom pa bom Skip the rope
Bom pa bom Look at me

All together now, ...

Black, white, green, red
Can I take my friend to bed?
Pink, brown, yellow, orange and blue,
I love you.

All together now, ...

Bom pa bom Sail the ship
Bom pa bom Chop the tree
Bom pa bom Skip the rope
Bom pa bom Look at me

All together now, ...




12/8


INTRO
F#

e|------ ------ ------ ------|------ ------ ------ 2-----|
B|---------------------------|---------------------2-----|
G|---------------------------|---------------------3-----|
D|---------------------------|---------------------4-----|
A|---------------------------|---------------------4-----|
E|---------------------------|---------------------2-----|

e|------ ------ ------ ------|------ ------ ------ 6-----|
B|---------------------------|---------------------7-----|
G|---------------------------|---------------------6-----|
D|---------------------------|---------------------------|
A|---------------------------|---------------------------|
E|---------------------------|---------------------------|


G

e|2/3--- 3----- 3----- 3-----|3----- 3----- 3----- 3-----|
B|2/3----3------3------3-----|3------3------3------3-----|
G|3/4----4------4------4-----|4------4------4------4-----|
D|4/5----5------5------5-----|5------5------5------5-----|
A|4/5----5------5------5-----|5------5------5------5-----|
E|2/3----3------3------3-----|3------3------3------3-----|

e|6/7--- 7----- 7----- 7-----|7----- 7----- 7----- 7-----|
B|7/8----8------8------8-----|8------8------8------8-----|
G|6/7----7------7------7-----|7------7------7------7-----|
D|---------------------------|---------------------------|
A|---------------------------|---------------------------|
E|---------------------------|---------------------------|




e|3----- 3---3- 3----- 3-----|3----- 3----- 3----- 3-----|
B|3------3---3--3------3-----|3------3------3------3-----|
G|4------4---4--4------4-----|4------4------4------4-----|
D|5------5---5--5------5-----|5------5------5------5-----|
A|5------5---5--5------5-----|5------5------5------5-----|
E|3------3---3--3------3-----|3------3------3------3-----|

e|7----- 7---7- 7----- 7-----|7----- 7----- 7----- 7-----|
B|8------8---8--8------8-----|8------8------8------8-----|
G|7------7---7--7------7-----|7------7------7------7-----|
D|---------------------------|---------------------------|
A|---------------------------|---------------------------|
E|---------------------------|---------------------------|




e|3----- 3---3- 3----- 3---3-|3----- 3----- 3----- 3---3-|
B|3------3---3--3------3---3-|3------3------3------3---3-|
G|4------4---4--4------4---4-|4------4------4------4---4-|
D|5------5---5--5------5---5-|5------5------5------5---5-|
A|5------5---5--5------5---5-|5------5------5------5---5-|
E|3------3---3--3------3---3-|3------3------3------3---3-|

e|7----- 7---7- 7----- 7---7-|7----- 7----- 7----- 7---7-|
B|8------8---8--8------8---8-|8------8------8------8---8-|
G|7------7---7--7------7---7-|7------7------7------7---7-|
D|---------------------------|---------------------------|
A|---------------------------|---------------------------|
E|---------------------------|---------------------------|




e|3----- 3----- 3---3- 3-----|3----- 3----- 3----- 3---3-|
B|3------3------3---3--3-----|3------3------3------3---3-|
G|4------4------4---4--4-----|4------4------4------4---4-|
D|5------5------5---5--5-----|5------5------5------5---5-|
A|5------5------5---5--5-----|5------5------5------5---5-|
E|3------3------3---3--3-----|3------3------3------3---3-|

e|7----- 7----- 7---7- 7-----|7----- 7----- 7----- 7---7-|
B|8------8------8---8--8-----|8------8------8------8---8-|
G|7------7------7---7--7-----|7------7------7------7---7-|
D|---------------------------|---------------------------|
A|---------------------------|---------------------------|
E|---------------------------|---------------------------|


A
0:10

e|3----- 3---3- 3----- 3-----|3----- 3---3- 3----- 3-----|
B|3------3---3--3------3-----|3------3---3--3------3-----|
G|4------4---4--4------4-----|4------4---4--4------4-----|
D|5------5---5--5------5-----|5------5---5--5------5-----|
A|5------5---5--5------5-----|5------5---5--5------5-----|
E|3------3---3--3------3-----|3------3---3--3------3-----|
One two three four
e|7----- 7---7- 7----- 7-----|7----- 7----- 7----- 7-----|
B|8------8---8--8------8-----|8------8------8------8-----|
G|7------7---7--7------7-----|7------7------7------7-----|
D|---------------------------|---------------------------|
A|---------------------------|---------------------------|
E|---------------------------|---------------------------|


D7

e|------ ------ ------ ------|------ ------ ------ ------|
B|3------3------3------3-----|3------3------3------3-----|
G|5------5------5------5-----|5------5------5------5-----|
D|4------4------4------4-----|4------4------4------4-----|
A|5------5------5------5-----|5------5------5------5-----|
E|---------------------------|---------------------------|
Can I have a little more
e|5----- 5----- 5----- 5-----|5----- 5----- 5----- 5-----|
B|7------7------7------7-----|7------7------7------7-----|
G|7------7------7------7-----|7------7------7------7-----|
D|---------------------------|---------------------------|
A|---------------------------|---------------------------|
E|---------------------------|---------------------------|



00:15
G D7

e|3----- 3----- 3----- 3-----|3----- 3----- 3----- ------|
B|3------3------3------3-----|3------3------3------3-----|
G|4------4------4------4-----|4------4------4------5-----|
D|5------5------5------5-----|5------5------5------4-----|
A|5------5------5------5-----|5------5------5------5-----|
E|3------3------3------3-----|3------3------3------------|
Five six seven eight nine ten
e|7----- 7----- 7----- 7-----|7----- 7----- 7----- 5-----|
B|8------8------8------8-----|8------8------8------7-----|
G|7------7------7------7-----|7------7------7------7-----|
D|---------------------------|---------------------------|
A|---------------------------|---------------------------|
E|---------------------------|---------------------------|


G

e|------ ------ ------ 3-----|3----- 3----- 3----- 3-----|
B|-------3------3------3-----|3------3------3------3-----|
G|-------5------5------4-----|4------4------4------4-----|
D|-------4------4------5-----|5------5------5------5-----|
A|-------5------5------5-----|5------5------5------5-----|
E|---------------------3-----|3------3------3------3-----|
I love you
e|------ 5----- 5----- 7-----|7----- 7----- 7----- 7---7-|
B|-------7------7------8-----|8------8------8------8---8-|
G|-------7------7------7-----|7------7------7------7---7-|
D|---------------------------|---------------------------|
A|---------------------------|---------------------------|
E|---------------------------|---------------------------|
Banjo
A
00:20


e|3----- 3----- 3----- 3-----|3----- 3----- 3----- 3-----|
B|3------3------3------3-----|3------3------3------3-----|
G|4------4------4------4-----|4------4------4------4-----|
D|5------5------5------5-----|5------5------5------5-----|
A|5------5------5------5-----|5------5------5------5-----|
E|3------3------3------3-----|3------3------3------3-----|
A B C D
e|7----- 7---7- 7----- 7---7-|7----- 7---7- 7----- 7-----|
B|8------8---8--8------8---8-|8------8---8--8------8-----|
G|7------7---7--7------7---7-|7------7---7--7------7-----|
D|---------------------------|---------------------------|
A|---------------------------|---------------------------|
E|---------------------------|---------------------------|




e|------ ------ ------ ------|------ ------ ------ ------|
B|3------3------3------3-----|3------3------3------3-----|
G|5------5------5------5-----|5------5------5------5-----|
D|4------4------4------4-----|4------4------4------4-----|
A|5------5------5------5-----|5------5------5------5-----|
E|---------------------------|---------------------------|
Can I bring my friend to tea
e|5----- 5---5- 5----- 5---5-|5----- 5---5- 5----- 5-----|
B|7------7---7--7------7---7-|7------7---7--7------7-----|
G|7------7---7--7------7---7-|7------7---7--7------7-----|
D|---------------------------|---------------------------|
A|---------------------------|---------------------------|
E|---------------------------|---------------------------|



00:25

e|3----- 3----- 3----- 3-----|3----- 3----- 3----- ------|
B|3------3------3------3-----|3------3------3------3-----|
G|4------4------4------4-----|4------4------4------5-----|
D|5------5------5------5-----|5------5------5------4-----|
A|5------5------5------5-----|5------5------5------5-----|
E|3------3------3------3-----|3------3------3------------|
E F G H I J
e|7----- 7---7- 7----- 7---7-|7----- 7----- 7----- 5-----|
B|8------8---8--8------8---8-|8------8------8------7-----|
G|7------7---7--7------7---7-|7------7------7------7-----|
D|---------------------------|---------------------------|
A|---------------------------|---------------------------|
E|---------------------------|---------------------------|




e|------ ------ ------ 3-----|3---3- 3----- 3----- 3-----|
B|-------3------3------3-----|3---3--3------3------3-----|
G|-------5------5------4-----|4---4--4------4------4-----|
D|-------4------4------5-----|5---5--5------5------5-----|
A|-------5------5------5-----|5---5--5------5------5-----|
E|---------------------3-----|3---3--3------3------3-----|
I love you Bom bom bom
e|------ 5----- 5----- 7-----|7---7- 7----- 7----- 7-----|
B|-------7------7------8-----|8---8--8------8------8-----|
G|-------7------7------7-----|7---7--7------7------7-----|
D|---------------------------|---------------------------|
A|---------------------------|---------------------------|
E|---------------------------|---------------------------|


B
00:30
C6 C

e|5----- 5----- 5----- 5---3-|3----- 3----- 3----- 3-----|
B|5------5------5------5---5-|5------5------5------5-----|
G|5------5------5------5---5-|5------5------5------5-----|
D|5------5------5------5---5-|5------5------5------5-----|
A|3------3------3------3---3-|3------3------3------3-----|
E|---------------------------|---------------------------|
Bom pa bom Sail ship
the
e|8----- 8----- 8----- 8---5-|5----- 5----- 3----- 3-----|
B|8------8------8------8---5-|5------5------5------5-----|
G|9------9------9------9---5-|5------5------5------5-----|
D|---------------------------|---------------------------|
A|---------------------------|---------------------------|
E|---------------------------|---------------------------|
C C6 C

G

e|3----- 3----- 3----- 3-----|3----- 3----- 3----- 3-----|
B|3------3------3------3-----|3------3------3------3-----|
G|4------4------4------4-----|4------4------4------4-----|
D|5------5------5------5-----|5------5------5------5-----|
A|5------5------5------5-----|5------5------5------5-----|
E|3------3------3------3-----|3------3------3------3-----|
Bom pa bom Chop tree
the
e|7----- 7---7- 7----- 7---7-|7----- 7---7- 7----- 7---8-|
B|8------8---8--8------8---8-|8------8---8--8------8---8-|
G|7------7---7--7------7---7-|7------7---7--7------7---9-|
D|---------------------------|---------------------------|
A|---------------------------|---------------------------|
E|---------------------------|---------------------------|


C6 C C6

e|5----- 5----- 5----- 5-----|3----- 3----- 5---5- 5-----|
B|5------5------5------5-----|5------5------5---5--5-----|
G|5------5------5------5-----|5------5------5---5--5-----|
D|5------5------5------5-----|5------5------5---5--5-----|
A|3------3------3------3-----|3------3------3---3--3-----|
E|---------------------------|---------------------------|
Bom pa bom Skip rope
the
e|8----- 8----- 8----- 8-----|3----- 3----- 5---5- 5-----|
B|8------8------8------8-----|5------5------5---5--5-----|
G|9------9------9------9-----|5------5------5---5--5-----|
D|---------------------------|---------------------------|
A|---------------------------|---------------------------|
E|---------------------------|---------------------------|
C C6

D7

e|------ ------ ------ ------|------ ------ ------ ------|
B|3------3------3------3-----|3------3------3------3-----|
G|5------5------5------5-----|5------5------5------5-----|
D|4------4------4------4-----|4------4------4------4-----|
A|5------5------5------5-----|5------5------5------5-----|
E|---------------------------|---------------------------|
Bom pa bom Look me
at
e|5----- 5----- 5----- 5-----|5----- 8----- 5----- 5-----|
B|7------7------7------7-----|7------7------7------7-----|
G|7------7------7------7-----|7------7------7------7-----|
D|---------------------------|---------------------------|
A|---------------------------|---------------------------|
E|---------------------------|---------------------------|
D D7 D


D7
e|------ ------ ------ ------|------ ------ ------ ------|
B|3------3------3------3-----|3------3------3------3-----|
G|5------5------5------5-----|5------5------5------5-----|
D|4------4------4------4-----|4------4------4------4-----|
A|5------5------5------5-----|5------5------5------5-----|
E|---------------------------|---------------------------|
All together now
e|5----- 8----- 5----- 5-----|8----- 8----- 8----- 8-----|
B|7------7------7------7-----|7------7------7------7-----|
G|7------7------7------7-----|7------7------7------7-----|
D|---------------------------|---------------------------|
A|---------------------------|---------------------------|
E|---------------------------|---------------------------|
D7 D D7

Chorus
00:43
G

e|3----- 3----- 3----- 3-----|3----- 3----- 3----- 3-----|
B|3------3------3------3-----|3------3------3------3-----|
G|4------4------4------4-----|4------4------4------4-----|
D|5------5------5------5-----|5------5------5------5-----|
A|5------5------5------5-----|5------5------5------5-----|
E|3------3------3------3-----|3------3------3------3-----|
All together now
All together now
e|7----- 7----- 7---7- 7-----|7----- 7----- 7----- 7-----|
B|8------8------8---8--8-----|8------8------8------8-----|
G|7------7------7---7--7-----|7------7------7------7-----|
D|---------------------------|---------------------------|
A|---------------------------|---------------------------|
E|---------------------------|---------------------------|




e|3----- 3----- 3----- 3-----|3----- 3----- 3----- 3-----|
B|3------3------3------3-----|3------3------3------3-----|
G|4------4------4------4-----|4------4------4------4-----|
D|5------5------5------5-----|5------5------5------5-----|
A|5------5------5------5-----|5------5------5------5-----|
E|3------3------3------3-----|3------3------3------3-----|
All together now
All together now
e|7----- 7---7- 7----- 7---7-|7----- 7----- 7----- 7-----|
B|8------8---8--8------8---8-|8------8------8------8-----|
G|7------7---7--7------7---7-|7------7------7------7-----|
D|---------------------------|---------------------------|
A|---------------------------|---------------------------|
E|---------------------------|---------------------------|


00:48
D7

e|------ ------ ------ ------|------ ------ ------ ------|
B|3------3------3------3-----|3------3------3------3-----|
G|5------5------5------5-----|5------5------5------5-----|
D|4------4------4------4-----|4------4------4------4-----|
A|5------5------5------5-----|5------5------5------5-----|
E|---------------------------|---------------------------|
All together now
All together now
e|5----- 5----- 5---5- 5-----|5----- 5----- 5---5- 5-----|
B|7------7------7---7--7-----|7------7------7---7--7-----|
G|7------7------7---7--7-----|7------7------7---7--7-----|
D|---------------------------|---------------------------|
A|---------------------------|---------------------------|
E|---------------------------|---------------------------|


G

e|3----- 3----- 3----- 3-----|3---3- 3----- 3----- 3-----|
B|3------3------3------3-----|3---3--3------3------3-----|
G|4------4------4------4-----|4---4--4------4------4-----|
D|5------5------5------5-----|5---5--5------5------5-----|
A|5------5------5------5-----|5---5--5------5------5-----|
E|3------3------3------3-----|3---3--3------3------3-----|
All together now
All together now
e|7----- 7---7- 7----- 7---7-|7----- 7----- 7----- 7-----|
B|8------8---8--8------8---8-|8------8------8------8-----|
G|7------7---7--7------7---7-|7------7------7------7-----|
D|---------------------------|---------------------------|
A|---------------------------|---------------------------|
E|---------------------------|---------------------------|


A
00:53
Black, white, green, red
Can I take my friend to bed?
Pink, brown, yellow, orange and blue,
I love you.

C
01:03
All together now, ...

B
01:22
Bom pa bom Sail the ship
Bom pa bom Chop the tree
Bom pa bom Skip the rope
Bom pa bom Look at me

C
01:34
All together now, ...






B Bend
R Release
/ Slide up
Slide down
H Hammer-on
P Pull-off
~ Vibrato
+ Harmonic
x Mute note
. Play note like a dot in standard notation
^ Ties two notes together
(. Pause

-----------------------------
|  , ,   |
|     http://akords.org     |
-----------------------------

 (: 0)
    :
  • All Together Now 3
  • All Together Now 4
  • All Together Now 2
  • Yellow Submarine
  • Love Me Do 2
  •  
    , . '.

    ':*
    E-Mail:*
    :
    , : *
     
      

    BLIBL-