|  
 
:  
  : :  
      ?    

  |

akords.org » B » Beatles » All My Loving (solo)

Beatles - All My Loving (solo) 

------------------------------------------------------------------
The Beatles - All My Loving
Solo
------------------------------------------------------------------

Tabbed by: Michael Paulkovich

I figured this tab out by watching the Beatles on Ed Sullivan, a DVD I have
from a 1964 show. As a result, this tab should be about 98% correct. I've not
seen a tab for the All My Loving solo anywhere - enjoy!

Note that George Harrison played in a Chet Atkins style, so he forms whole chords
with his left hand and picks out the solo riff with the right - with the pick
hitting the lower indicated string, and middle & ring fingers normally pulling
two or three higher strings simultaneously. Thus, I've put the chords at the top
of each staff as a guide.


Solo
A
e|-------------------------------|--------5----------------------|
B|-------------------------------|--------5-------------5-5------|
G|-------------------------------|--------6-------------6--------|
D|-------------------------------|----------------------7--------|
A|-------------------------------|-------------------------------|
E|--------0-------2-------4------|--5----------------------------|

A E
e|-9-----------------------------|--4--h7----------------4-------|
B|-10----------12--------10------|--5---------5----------5-------|
G|-9-----------9-----------------|--4---------4----------6-------|
D|-----------------------11------|------------6------------------|
A|-------------------------------|-------------------------------|
E|-------------------------------|-------------------------------|

E A E F#min
e|-7------------5---------4------|--2--------------------2-------|
B|-9------------5---------5------|--2---------2----------2-------|
G|-9------------6---------4------|--2---------2------------------|
D|-------------------------------|------------4------------------|
A|-------------------------------|-------------------------------|
E|-------------------------------|-------------------------------|

A A E
e|-9----------------------9------|--0----------------------------|
B|-10-----------10--------10-----|--0--------------0------0------|
G|-9------------9---------9------|--1---------0-h1---0-h1------2-|
D|--------------11---------------|-----------2-----------------2-|
A|-------------------------------|-------------------------------|
E|-------------------------------|-------------------------------|


| / slide up
| slide down
| h hammer-on
| p pull-off
| ~ vibrato
| + harmonic
| x Mute note

---------------------

-----------------------------
|  , ,   |
|     http://akords.org     |
-----------------------------

 (: 0)
    :
  • All My Loving 3
  • All My Loving 4
  • Aint She Sweet (solo)
  • I Dont Want To Spoil The Party (solo)
  • Cant Buy Me Love (solo)
  •  
    , . '.

    ':*
    E-Mail:*
    :
    , : *
     
      

    BLIBL-