|  
 
:  
  : :  
      ?    

  |

akords.org » B » Beatles » Aint She Sweet

Beatles - Aint She Sweet 

-------------------------------------------------------------
Ain't She Sweet - Beatles arrangement
-------------------------------------------------------------
Chords/Tab by Rockcru

No claim is made with respect to the music or lyrics, as such
rights belong to the original recording artists.


Chord Forms

E Eaddb9 B G#7 C#7 F#7 B7 B7*
E|--0-----0--------7--------4-------4--------2------2------0----|
B|--0-----0--------7--------4-------6--------2------4------0----|
G|--1-----1--------8--------5-------4--------3------2------2----|
D|--2-----3--------9--------4-------6--------2------4------1----|
A|--2-----2--------9--------6-------4--------4------2------2----|
E|--0-----0--------7--------4-------x--------2------------------|


Intro B7*

E Eaddb9 B
Oh ain't she sweet,
E Eaddb9 B
well see her walking down that street.

E G#7 C#7
Yes I ask you very confidentially:

F#7 B7 E B7*
ain't she sweet?


E Eaddb9 B
Oh ain't she nice,
E Eaddb9 B
well look her over once or twice.
E G#7 C#7
Yes I ask you very confidentially:
F#7 B7 E
ain't she nice?


A
Just cast an eye
E
in her direction.
A
Oh me oh my,
B7*
ain't that perfection?


E Eaddb9 B
Oh I repeat
E Eaddb9 B
well don't you think that's kind of neat?
E G#7 C#7
Yes I ask you very confidentially:
F#7 B7 E
ain't she sweet?

Solo
A E A B7*

(repeat Chord Forms respectively)

Oh ain't she sweet,
well see her walking down that street.
Well I ask you very confidentially:
ain't she sweet?

Oh ain't that nice,
well look it over once or twice.
Yes I ask you very confidentially:
ain't she nice?

Just cast an eye
in her direction.
Oh me oh my,
ain't that perfection?

Oh I repeat
well don't you think that's kind of neat?
Yes I ask you very confidentially:
ain't she sweet?

Oh ain't she sweet,
well see her walking down that street.
Well I ask you very confidentially:
ain't she sweet?
Well I ask you very confidentially:
ain't she sweet?

-----------------------------
|  , ,   |
|     http://akords.org     |
-----------------------------

 (: 0)
    :
  • My Sweet Lord
  • Dependence
  • Aint She Sweet (solo)
  • Bring It On Home To Me 2
  •  
    , . '.

    ':*
    E-Mail:*
    :
    , : *
     
      

    BLIBL-