|  
 
:  
  : :  
      ?    

  |

akords.org » B » Beatles » Act Naturally 2

Beatles - Act Naturally 2 

-----------------------------------------------------------------


THE BEATLES - ACT NATURALLY (Morrison/Russell) From HELP album.
Released on August 6th 1965.


-----------------------------------------------------------------

Tabbed by:PJVillanueva





They're gonna put me in the movies
They're gonna make a big star out of me
We'll make a film about a man that's sad and lonely
And all I gotta so is act naturally

Well, I'll bet you I'm gonna be a big star
Might win an Oscar you can never tell
The movies gonna make me a big star
'Cause I can play the part so well

Well I hope you come and see me in the movies
Then I know that you will plainly see
The biggest fool that ever hit the big time
And all I gotta do is act naturally



We'll make the scene about a man that's sad and lonely
And beggin down upon his bended knee
I'll play the part and I won't need rehearsin'
All I gotta do is act naturally

Well, I bet you I'm gonna be a big star
Might win an Oscar you can never tell
The movies gonna make me a big star
'Cause I can play the part so well

Well I hope you come and see me in the movies
Then I know that you will plainly see
The biggest fool that ever hit the big time
And all I gotta do is act naturally




Tune solo guitar low E string to D.




e|------ ------ ------ ------|------ ------ ------ ------|
B|---------------------------|---------------------------|
G|---------------------------|-------0-------------------|
D|---------------------------|--------------4------2-----|
A|---------------------------|---------------------------|
D|---------------------------|---------------------------|


D
e|2----- 2----- 2----- ------|2----- ------ 2----- ------|
B|3------3------3------------|3-------------3------------|
G|2------2------2------------|2-------------2------------|
D|0------0------0------------|0-------------0------------|
A|---------------------------|---------------------------|
E|---------------------------|---------------------------|

e|------ ------ ------ ------|------ 2----- ----2- ------|
B|-------3----------1--------|------------3H5------------|
G|-----------0--2------------|---------------------------|
D|0--------------------------|0--------------------------|
A|---------------------------|---------------------------|
D|---------------------------|---------------------------|



G
e|3----- 3----- 3----- 3-----|------ 3----- ----3- 3-----|
B|3------3------3------3-----|-------3----------3--3-----|
G|0------0------0------0-----|-------0----------0--0-----|
D|0------0------0------0-----|-------0----------0--0-----|
A|2------2------2------2-----|-------2----------2--2-----|
E|3------3------3------3-----|-------3----------3--3-----|

e|3----- 3----- 3----- ------|------ ------ ------ ------|
B|3-B-5--5------5-R-3--------|---------------------------|
G|---------------------4-----|---------------------------|
D|---------------------------|5--------------------------|
A|---------------------------|------------------7-5-----|
D|---------------------------|-----------7/-9------------|


00:06

e|3----- ------ 3----- ----3-|3----- 3----- 3---3- 3-----|
B|3-------------3----------3-|3------3------3---3--3-----|
G|0-------------0----------0-|0------0------0---0--0-----|
D|0-------------0----------0-|0------0------0---0--0-----|
A|2-------------2----------2-|2------2------2---2--2-----|
E|3-------------3----------3-|3------3------3---3--3-----|
They're gonna put me in the movies
e|------ ------ ------ ------|------ ------ ------ ------|
B|---------------------------|---------------------------|
G|---------------------------|---------------------------|
D|5--------------------------|---------------------------|
A|---------------------------|---------------------------|
D|---------------------------|---------------------------|



C
e|0----- 0----- 0---0- 0---0-|0----- 0----- 0---0- 0-----|
B|1------1------1---1--1---1-|1------1------1---1--1-----|
G|0------0------0---0--0---0-|0------0------0---0--0-----|
D|2------2------2---2--2---2-|2------2------2---2--2-----|
A|3------3------3---3--3---3-|3------3------3---3--3-----|
E|---------------------------|---------------------------|

e|------ ------ ------ ------|------ ------ ------ ------|
B|---------------------------|---------------------------|
G|-----------0--0----------0-|-------------------------0-|
D|--------------0H2----------|--------------0H2----------|
A|5--------------------------|5--------------------------|
D|---------------------------|---------------------------|



G
e|3----- 3----- 3----- 3-----|3----- 3---3- 3----- 3-----|
B|3------3------3------3-----|3------3---3--3------3-----|
G|0------0------0------0-----|0------0---0--0------0-----|
D|0------0------0------0-----|0------0---0--0------0-----|
A|2------2------2------2-----|2------2---2--2------2-----|
E|3------3------3------3-----|3------3---3--3------3-----|
They're make a big star out of me
gonna
e|------ ------ ------ ------|------ ------ ------ ------|
B|---------------------------|---------------------------|
G|---------------------------|0--------------------------|
D|---------------------------|---------------------------|
A|---------------------------|---------------------------|
D|5--------------------------|---------------------------|



D
e|2----- 2----- ------ 2-----|2----- ----2- 2----- 3-----|
B|3------3-------------3-----|3----------3--3------3-----|
G|2------2-------------2-----|2----------2--2------2-----|
D|0------0-------------0-----|0----------0--0------0-----|
A|---------------------------|---------------------------|
E|---------------------------|---------------------------|
We'll
e|------ ------ ------ ------|------ ------ ------ ------|
B|---------------------------|---------------------------|
G|-------0----------0--------|---------------------------|
D|----------0-H-2------------|0--------------------------|
A|---------------------------|---------------------------|
D|---------------------------|---------------------------|

e|------ ------ ------ ------|------ ------ ------ ------|
B|---------------------------|---------------------------|
G|---------------------------|---------------------------|
D|---------------------------|0--------------------------|
A|-------------------0H2-----|--------------2-P-0--------|
D|0-----------2H4------------|---------------------4-----|



G
e|3----- 3----- 3----- 3-----|3----- 3----- 3----- 3-----|
B|3------3------3------3-----|3------3------3------3-----|
G|0------0------0------0-----|0------0------0------0-----|
D|0------0------0------0-----|0------0------0------0-----|
A|2------2------2------2-----|2------2------2------2-----|
E|3------3------3------3-----|3------3------3------3-----|
make a film about a man who's sad and lonely
e|------ ------ ------ ------|------ ------ ------ ------|
B|-------0-------------0-----|---------------------------|
G|---------------------------|---------------------------|
D|--------------0------------|0-------------0------------|
A|---------------------------|---------------------------|
D|5--------------------------|---------------------------|



C
e|0----- 0----- ------ 0-----|0----- 0----- ------ 0-----|
B|1------1-------------1-----|1------1-------------1-----|
G|0------0-------------0-----|0------0-------------0-----|
D|2------2-------------2-----|2------2-------------2-----|
A|3--------------------------|3--------------------------|
E|--------------3------------|--------------3------------|
and
e|------ ------ ------ ------|------ ------ ------ ------|
B|---------------------------|---------------------------|
G|-------0----------0------0-|0------0----------0--------|
D|-----------0--2------------|-----------0--2------------|
A|3--------------------------|---------------------------|
D|---------------------------|---------------------------|



D
e|2----- 2----- 2---2- 2-----|2----- 2----- 2---2- 2-----|
B|3------3------3---3--3-----|3------3------3---3--3-----|
G|2------2------2---2--2-----|2------2------2---2--2-----|
D|0------0------0---0--0-----|0------0------0---0--0-----|
A|---------------------------|---------------------------|
E|---------------------------|---------------------------|
all I've to do is act naturally
got
e|------ ------ ------ ------|------ ------ ------ ------|
B|---------------------------|---------------------------|
G|---------------------------|-------------------------3/|
D|---------------------------|---------------------------|
A|---------------------------|---------------------------|
D|---------------------------|---------------------------|



G
e|3----- 3---3- 3----- 3-----|3----- ------ ------ ------|
B|3------3---3--3------3-----|3--------------------------|
G|0------0---0--0------0-----|0--------------------------|
D|0------0---0--0------0-----|0--------------------------|
A|2------2---2--2------2-----|2--------------------------|
E|3------3---3--3------3-----|3--------------------------|
Well
I
e|----0- ------ ------ ------|------ ------ ------ ------|
B|--------------3---0--------|---------------------------|
G|4--------------------------|0--------------------------|
D|---------------------------|---------------------------|
A|---------------------------|---------------------------|
D|---------------------------|---------------------------|


00:26
D
e|2----- 2----- ----2- 2-----|2----- ----2- 2---2- 2-----|
B|3------3----------3--3-----|3----------3--3---3--3-----|
G|2------2----------2--2-----|2----------2--2---2--2-----|
D|0------0----------0--0-----|0----------0--0---0--0-----|
A|---------------------------|---------------------------|
E|---------------------------|---------------------------|
bet you I'm gonna be a big
e|------ ------ ------ ------|------ ------ ------ ------|
B|---------------------------|---------------------------|
G|---------------------------|---------------------------|
D|---------------------------|0--------------------------|
A|---------------------------|---------------------------|
D|---------------------------|---------------------------|



G
e|3----- 3----- ----3- 3-----|3----- ----3- 3---3- 3-----|
B|3------3----------3--3-----|3----------3--3---3--3-----|
G|0------0----------0--0-----|0----------0--0---0--0-----|
D|0------0----------0--0-----|0----------0--0---0--0-----|
A|2------2----------2--2-----|2----------2--2---2--2-----|
E|3------3------3---3--3-----|3----------3--3---3--3-----|
star Might
e|------ ------ ------ ------|------ ------ ------ ------|
B|---------------------------|---------------------------|
G|---------------------------|0------0----------0--------|
D|0--------------------------|------------0H2------------|
A|---------------------------|---------------------------|
D|---------------------------|---------------------------|



D
e|2----- 2----- ----2- ----2-|2----- 2----- ----2- ----2-|
B|3------3----------3------3-|3------3----------3------3-|
G|2------2----------2------2-|2------2----------2------2-|
D|0------0----------0------0-|0------0----------0------0-|
A|---------------------------|---------------------------|
E|---------------------------|---------------------------|
win an Oscar you can never tell
e|------ ------ ------ ------|------ ------ ------ ------|
B|---------------------------|---------------------------|
G|---------------------------|---------------------------|
D|---------------------------|---------------------------|
A|-------0-------------0-----|-------0-------------0-----|
D|---------------------------|---------------------------|



G
e|3----- 3----- ----3- 3---3-|3----- 3---3- ----3- 3-----|
B|3------3----------3--3---3-|3------3---3------3--3-----|
G|0------0----------0--0---0-|0------0---0------0--0-----|
D|0------0----------0--0---0-|0------0---0------0--0-----|
A|2------2----------2--2---2-|2------2---2------2--2-----|
E|3------3----------3--3---3-|3------3---3------3--3-----|
The
e|------ ------ ------ ------|------ ------ ------ ------|
B|---------------------------|---------------------------|
G|0------0----------0------0-|0------0----------0--------|
D|0-----------0H2------------|------------0H2------------|
A|---------------------------|---------------------------|
D|---------------------------|---------------------------|



D
e|2----- 2----- ----2- 2-----|2----- ----2- ----2- 2-----|
B|3------3----------3--3-----|3----------3------3--3-----|
G|2------2----------2--2-----|2----------2------2--2-----|
D|0------0----------0--0-----|0----------0------0--0-----|
A|---------------------------|---------------------------|
E|---------------------------|---------------------------|
movies gonna make me a big


G
e|3----- 3----- ----3- 3-----|3----- ----3- 3---3- 3-----|
B|3------3----------3--3-----|3----------3--3---3--3-----|
G|0------0----------0--0-----|0----------0--0---0--0-----|
D|0------0----------0--0-----|0----------0--0---0--0-----|
A|2------2----------2--2-----|2----------2--2---2--2-----|
E|3------3----------3--3-----|3----------3--3---3--3-----|
star 'cause
e|------ ------ ------ ------|------ ------ ------ ------|
B|---------------------------|---------------------------|
G|-------0----------0------0-|0------0----------0--------|
D|------------0H2------------|------------0H2------------|
A|---------------------------|---------------------------|
D|---------------------------|---------------------------|



A
e|0----- 0----- ----0- 0-----|0----- ----0- ----0- 0-----|
B|2------2----------2--2-----|2----------2------2--2-----|
G|2------2----------2--2-----|2----------2------2--2-----|
D|2------2----------2--2-----|2----------2------2--2-----|
A|0------0----------0--0-----|0----------0------0--0-----|
E|---------------------------|---------------------------|
I can play the part so well
e|------ ------ ------ ------|------ ------ ------ ------|
B|---------------------------|---------------------------|
G|---------------------------|---------------------------|
D|---------------------------|---------------------------|
A|---------------------------|---------------------------|
D|7----------7--7----------7-|7----------7--7----------7/|



D
e|2----- 2----- ----2- ----2-|2----- ----2- ----2- 3-----|
B|3------3----------3------3-|3----------3------3--3-----|
G|2------2----------2------2-|2----------2------2--2-----|
D|0------0----------0------0-|0----------0------0--0-----|
A|---------------------------|---------------------------|
E|---------------------------|---------------------------|
Well I
e|------ ------ ------ ------|------ ------ ------ ------|
B|---------------------------|---------------------------|
G|---------------------------|---------------------------|
D|-------12---------11-------|10---------9---------7-----|
A|---------------------------|------------------5--------|
D|12-----------------------12|---------------------------|


00:47
G
e|3----- 3----- 3----- 3-----|3----- 3----- ------ 3-----|
B|3------3------3------3-----|3------3-------------3-----|
G|0------0------0------0-----|0------0-------------0-----|
D|0------0------0------0-----|0------0-------------0-----|
A|2------2------2------2-----|2------2-------------2-----|
E|3------3------3------3-----|3------3-------------3-----|
hope you come and see me in the movies
e|------ ------ ------ ------|------ ------ ------ ------|
B|---------------------------|---------------------------|
G|---------------------------|---------------------------|
D|5--------------------------|---------------------------|
A|---------------------------|---------------------------|
D|---------------------------|---------------------------|



C
e|0----- 0----- ------ 0-----|0----- 0----- ------ 0-----|
B|1------1-------------1-----|1------1-------------1-----|
G|0------0-------------0-----|0------0-------------0-----|
D|2------2-------------2-----|2------2-------------2-----|
A|3--------------------------|3--------------------------|
E|--------------3------------|--------------3------------|

e|------ ------ ------ ------|------ ------ ------ ------|
B|---------------------------|---------------------------|
G|-------0----------0--------|0------0----------0--------|
D|------------0H2------2-----|------------0H2------------|
A|3--------------------------|---------------------------|
D|---------------------------|---------------------------|



G
e|3----- 3----- 3----- 3-----|3----- 3----- 3----- 3-----|
B|3------3------3------3-----|3------3------3------3-----|
G|0------0------0------0-----|0------0------0------0-----|
D|0------0------0------0-----|0------0------0------0-----|
A|2------2------2------2-----|2------2------2------2-----|
E|3------3------3------3-----|3------3------3------3-----|
Then know that will plainly
I'll you

D
e|2----- 2---2- 2----- 2---2-|2---2- ----2- 2----- 3-----|
B|3------3---3--3------3---3-|3---3------3--3------3-----|
G|2------2---2--2------2---2-|2---2------2--2------2-----|
D|0------0---0--0------0---0-|0---0------0--0------0-----|
A|---------------------------|---------------------------|
E|---------------------------|---------------------------|
see the
e|------ ------ ------ ------|------ ------ ------ ------|
B|---------------------------|---------------------------|
G|---------------------------|---------------------------|
D|---------------------------|0--------------------------|
A|-------------------0H2-----|--------------2-P-0--------|
D|0-----------2/4------------|---------------------4B5---|



G
e|3----- 3----- 3----- 3-----|3----- 3----- 3----- 3-----|
B|3------3------3------3-----|3------3------3------3-----|
G|0------0------0------0-----|0------0------0------0-----|
D|0------0------0------0-----|0------0------0------0-----|
A|2------2------2------2-----|2------2------2------2-----|
E|3------3------3------3-----|3------3------3------3-----|
biggest fool that hit the big
ever
e|------ ------ ------ ------|------ ------ ------ ------|
B|---------------------------|---------------------------|
G|---------------------------|---------------------------|
D|---------------------------|0-------------0------------|
A|---------------------------|---------------------------|
D|---------------------------|---------------------------|



C
e|0----- 0---0- 0----- 0-----|0----- 0---0- 0----- 0-----|
B|1------1---1--1------1-----|1------1---1--1------1-----|
G|0------0---0--0------0-----|0------0---0--0------0-----|
D|2------2---2--2------2-----|2------2---2--2------2-----|
A|3------3---3--3------3-----|3------3---3--3------3-----|
E|---------------------------|---------------------------|
time and
e|------ ------ ------ ------|------ ------ ------ ------|
B|---------------------------|---------------------------|
G|-------0----------0------0-|0------0----------0--------|
D|------------0H2------------|------------0H2------------|
A|3--------------------------|---------------------------|
D|---------------------------|---------------------------|



D
e|2----- 2----- 2----- 2-----|2----- 2---2- 2----- 3-----|
B|3------3------3------3-----|3------3---3--3------3-----|
G|2------2------2------2-----|2------2---2--2------2-----|
D|0------0------0------0-----|0------0---0--0------0-----|
A|---------------------------|---------------------------|
E|---------------------------|---------------------------|
all I've to do is act naturally
got

G
e|3----- 3----- 3----- 3-----|3----- ------ ------ ------|
B|3------3------3------3-----|3--------------------------|
G|0------0------0------0-----|0--------------------------|
D|0------0------0------0-----|0--------------------------|
A|2------2------2------2-----|2--------------------------|
E|3------3------3------3-----|3--------------------------|

e|------ ------ ------ ------|------ ------ ------ ------|
B|---------------------------|---------------------------|
G|---------------------------|---------------------------|
D|---------------------------|---------------------------|
A|---------------------------|---------------------------|
D|---------------------------|-------5------4------2-----|


01:08
D
e|2----- 2----- ----2- ----2-|2----- 2----- ----2- 3-----|
B|3------3----------3------3-|3------3----------3--3-----|
G|2------2----------2------2-|2------2----------2--2-----|
D|0------0----------0------0-|0------0----------0--0-----|
A|---------------------------|---------------------------|
E|---------------------------|---------------------------|

e|------ ------ ------ ------|------ ------ ------ ------|
B|---------------------------|---------------------------|
G|---------------------------|---------------------------|
D|-------0-------------------|-------0-------------------|
A|------------------3--------|---------------------3-----|
D|0-----------4/5------------|0-----------4/5------------|



G
e|------ 3----- ----3- 3---3-|3----- 3----- 3---3- 3---3-|
B|-------3----------3--3---3-|3------3------3---3--3---3-|
G|-------0----------0--0---0-|0------0------0---0--0---0-|
D|-------0----------0--0---0-|0------0------0---0--0---0-|
A|-------2----------2--2---2-|2------2------2---2--2---2-|
E|-------3----------3--3---3-|3------3------3---3--3---3-|

e|------ ------ ------ ------|------ ------ ------ ------|
B|---------------------------|---------------------------|
G|---------------------------|---------------------------|
D|5------5-------------------|---------------------------|
A|--------------6B7----------|---------------------------|
D|---------------------7B8---|5------5------4------2-----|



D
e|2----- 2----- ----2- ----2-|2----- 2---2- 2---2- 2-----|
B|3------3----------3------3-|3------3---3--3---3--3-----|
G|2------2----------2------2-|2------2---2--2---2--2-----|
D|0------0----------0------0-|0------0---0--0---0--0-----|
A|---------------------------|---------------------------|
E|---------------------------|---------------------------|

e|------ ------ ------ ------|------ ------ ------ ------|
B|---------------------------|---------------------------|
G|---------------------------|---------------------------|
D|-------0-------------------|-------0-------------------|
A|------------------3--------|---------------------3-----|
D|0-----------4/5------------|0-----------4/5------------|



G
e|------ 3----- ----3- 3---3-|------ 3----- ----3- 3-----|
B|-------3----------3--3---3-|-------3----------3--3-----|
G|-------0----------0--0---0-|-------0----------0--0-----|
D|-------0----------0--0---0-|-------0----------0--0-----|
A|-------2----------2--2---2-|-------2----------2--2-----|
E|-------3----------3--3---3-|-------3----------3--3-----|
We'll
e|------ ------ ------ ------|------ ------ ------ ------|
B|---------------------------|---------------------------|
G|---------------------------|---------------------------|
D|5------5-------------------|---------------------------|
A|--------------6B7----------|-------------------75-----|
D|---------------------7B8---|5-----------7/9------------|


01:18

e|3----- 3----- 3----- 3-----|3----- 3----- 3---3- 3-----|
B|3------3------3------3-----|3------3------3---3--3-----|
G|0------0------0------0-----|0------0------0---0--0-----|
D|0------0------0------0-----|0------0------0---0--0-----|
A|2------2------2------2-----|2------2------2---2--2-----|
E|3------3------3------3-----|3------3------3---3--3-----|
make the scene about a man That's sad and lonely
e|------ ------ ------ ------|------ ------ ------ ------|
B|---------------------------|---------------------------|
G|---------------------------|---------------------------|
D|5--------------------------|---------------------------|
A|---------------------------|---------------------------|
D|---------------------------|---------------------------|



C
e|0----- 0----- ------ 0-----|0----- 0----- ------ 0-----|
B|1------1-------------1-----|1------1-------------1-----|
G|0------0-------------0-----|0------0-------------0-----|
D|2------2-------------2-----|2------2-------------2-----|
A|3--------------------------|3--------------------------|
E|--------------3------------|--------------3------------|
and
e|------ ------ ------ ------|------ ------ ------ ------|
B|---------------------------|---------------------------|
G|-------0----------0------0-|0------0----------0--------|
D|------------0H2------------|------------0H2------------|
A|3--------------------------|---------------------------|
D|---------------------------|---------------------------|



G
e|3----- 3----- 3----- 3-----|3----- 3----- 3----- 3-----|
B|3------3------3------3-----|3------3------3------3-----|
G|0------0------0------0-----|0------0------0------0-----|
D|0------0------0------0-----|0------0------0------0-----|
A|2------2------2------2-----|2------2------2------2-----|
E|3------3------3------3-----|3------3------3------3-----|
beggin' down upon his bended
e|------ ------ ------ ------|------ ------ ------ ------|
B|---------------------------|---------------------------|
G|---------------------------|---------------------------|
D|---------------------------|---------------------------|
A|---------------------------|------------------0--2-----|
D|---------------------------|0-----------2/4------------|



D
e|2----- 2----- 2----- 2-----|2----- 2---2- 2----- 3-----|
B|3------3------3------3-----|3------3---3--3------3-----|
G|2------2------2------2-----|2------2---2--2------2-----|
D|0------0------0------0-----|0------0---0--0------0-----|
A|---------------------------|---------------------------|
E|---------------------------|---------------------------|
knees I'll
e|------ ------ ------ ------|------ ------ ------ ------|
B|---------------------------|---------------------------|
G|---------------------------|---------------------------|
D|0--------------------------|---------------------------|
A|--------------2---0--------|---------------------------|
D|---------------------4B5---|5--------------------------|



G
e|3----- 3---3- 3----- 3---3-|3----- 3----- 3----- 3-----|
B|3------3---3--3------3---3-|3------3------3------3-----|
G|0------0---0--0------0---0-|0------0------0------0-----|
D|0------0---0--0------0---0-|0------0------0------0-----|
A|2------2---2--2------2---2-|2------2------2------2-----|
E|3------3---3--3------3---3-|3------3------3------3-----|
play the part and I won't need rehearsin'


C
e|0----- 0---0- 0----- 0-----|0----- 0---0- 0----- 0-----|
B|1------1---1--1------1-----|1------1---1--1------1-----|
G|0------0---0--0------0-----|0------0---0--0------0-----|
D|2------2---2--2------2-----|2------2---2--2------2-----|
A|3------3---3--3------3-----|3------3---3--3------3-----|
E|---------------------------|---------------------------|
All
e|------ ------ ------ ------|------ ------ ------ ------|
B|---------------------------|---------------------------|
G|-------0----------0------0-|0------0----------0--------|
D|------------0H2------------|------------0H2------------|
A|3--------------------------|---------------------------|
D|---------------------------|---------------------------|



D
e|2----- 2----- 2----- 2-----|2----- 2---2- 2----- 3-----|
B|3------3------3------3-----|3------3---3--3------3-----|
G|2------2------2------2-----|2------2---2--2------2-----|
D|0------0------0------0-----|0------0---0--0------0-----|
A|---------------------------|---------------------------|
E|---------------------------|---------------------------|
I have do is act naturally
to
e|------ ------ ------ ------|------ ------ ------ ------|
B|---------------------------|---------------------------|
G|---------------------------|---------------------------|
D|---------------------------|0--------------------------|
A|---------------------------|---------------------------|
D|---------------------------|---------------------------|



G
e|3----- 3----- 3---3- 3-----|3----- ------ ------ ------|
B|3------3------3---3--3-----|3--------------------------|
G|0------0------0---0--0-----|0--------------------------|
D|0------0------0---0--0-----|0--------------------------|
A|2------2------2---2--2-----|2--------------------------|
E|3------3------3---3--3-----|3--------------------------|
Well
I
e|------ ------ ------ ------|------ ------ ------ ------|
B|---------------------------|---------------------------|
G|---------------------------|---------------------------|
D|---------------------------|5--------------------------|
A|-------------------75-----|---------------------------|
D|------------5/9------------|---------------------------|


01:39
D
e|2----- 2----- ----2- 2-----|2----- ----2- 2---2- 3-----|
B|3------3----------3--3-----|3----------3--3---3--3-----|
G|2------2----------2--2-----|2----------2--2---2--2-----|
D|0------0----------0--0-----|0----------0--0---0--0-----|
A|---------------------------|---------------------------|
E|---------------------------|---------------------------|
bet you I'm gonna be a big
e|------ ------ ------ ------|------ ------ ------ ------|
B|---------------------------|---------------------------|
G|---------------------------|---------------------------|
D|---------------------------|---------------------------|
A|---------------------------|---------------------------|
D|---------------------------|---------------------------|



G
e|3----- 3---3- ----3- 3-----|3----- ----3- 3----- 3---3-|
B|3------3---3------3--3-----|3----------3--3------3---3-|
G|0------0---0------0--0-----|0----------0--0------0---0-|
D|0------0---0------0--0-----|0----------0--0------0---0-|
A|2------2---2------2--2-----|2----------2--2------2---2-|
E|3------3---3------3--3-----|3----------3--3------3---3-|
star Might
e|------ ------ ------ ------|------ ------ ------ ------|
B|---------------------------|---------------------------|
G|---------------------------|-------0----------0--------|
D|0--------------------------|0-----------0H2------------|
A|---------------------------|---------------------------|
D|---------------------------|---------------------------|



D
e|2----- 2----- ----2- ------|2----- 2---2- 2---2- 2-----|
B|3------3----------3--------|3------3---3--3---3--3-----|
G|2------2----------2--------|2------2---2--2---2--2-----|
D|0------0----------0--------|0------0---0--0---0--0-----|
A|---------------------------|---------------------------|
E|---------------------------|---------------------------|
win an Oscar you can never tell

e|------ ------ ------ ------|------ ------ ------ ------|
B|---------------------------|---------------------------|
G|---------------------------|---------------------------|
D|0--------------------------|0--------------------------|
A|---------------------------|---------------------------|
D|---------------------------|---------------------------|



G
e|3----- 3----- ----3- 3-----|3----- ----3- ----3- 3-----|
B|3------3----------3--3-----|3----------3------3--3-----|
G|0------0----------0--0-----|0----------0------0--0-----|
D|0------0----------0--0-----|0----------0------0--0-----|
A|2------2----------2--2-----|2----------2------2--2-----|
E|3------3----------3--3-----|3----------3------3--3-----|
The
e|------ ------ ------ ------|------ ------ ------ ------|
B|---------------------------|---------------------------|
G|------------------0--------|0--------------------------|
D|0--------------------2-----|---------------------------|
A|---------------------------|---------------------------|
D|---------------------------|-------5------4------2-----|



D
e|2----- 2----- 2---2- 2---2-|2----- 2----- ----2- 3-----|
B|3------3------3---3--3---3-|3------3----------3--3-----|
G|2------2------2---2--2---2-|2------2----------2--2-----|
D|0------0------0---0--0---0-|0------0----------0--0-----|
A|---------------------------|---------------------------|
E|---------------------------|---------------------------|
movies gonna make me a big
e|------ ------ ------ ------|------ ------ ------ ------|
B|---------------------------|---------------------------|
G|---------------------------|---------------------------|
D|---------------------------|---------------------------|
A|---------------------------|---------------------------|
D|0--------------------------|-------------------------/-|



G
e|3----- 3----- ----3- 3---3-|3----- 3----- ----3- ----3-|
B|3------3----------3--3---3-|3------3----------3------3-|
G|0------0----------0--0---0-|0------0----------0------0-|
D|0------0----------0--0---0-|0------0----------0------0-|
A|2------2----------2--2---2-|2------2----------2------2-|
E|3------3----------3--3---3-|3------3----------3------3-|
star 'cause
e|------ ------ ------ ------|------ ------ ------ ------|
B|---------------------------|---------------------------|
G|---------------------------|---------------------------|
D|-------5----------5--------|5----------6---------6-----|
A|---------------------------|---------------------------|
D|5-------------5----------5-|----5--5----------6------/-|



A
e|0----- 0----- ----0- 0-----|0----- 0---0- 0----- 0-----|
B|2------2----------2--2-----|2------2---2--2------2-----|
G|2------2----------2--2-----|2------2---2--2------2-----|
D|2------2----------2--2-----|2------2---2--2------2-----|
A|0------0----------0--0-----|0------0---0--0------0-----|
E|---------------------------|---------------------------|
I can play the part so
e|------ ------ ------ ------|------ ------ ------ ------|
B|---------------------------|---------------------------|
G|---------------------------|---------------------------|
D|---------------------------|---------------------------|
A|---------------------------|---------------------------|
D|7--------------------------|-------------------------7/|



D
e|2----- 2----- ----2- 2-----|2----- ----2- 2---2- 2-----|
B|3------3----------3--3-----|3----------3--3---3--3-----|
G|2------2----------2--2-----|2----------2--2---2--2-----|
D|0------0----------0--0-----|0----------0--0---0--0-----|
A|---------------------------|---------------------------|
E|---------------------------|---------------------------|
well Well I
e|------ ------ ------ ------|------ ------ ------ ------|
B|---------------------------|---------------------------|
G|---------------------------|---------------------------|
D|----12--------10---------9-|-------7-------------------|
A|---------------------------|---------------------------|
D|12---------10--------------|----7----------------------|


01:59
G
e|3----- 3----- 3----- 3-----|3----- 3----- 3----- 3-----|
B|3------3------3------3-----|3------3------3------3-----|
G|0------0------0------0-----|0------0------0------0-----|
D|0------0------0------0-----|0------0------0------0-----|
A|2------2------2------2-----|2------2------2------2-----|
E|3------3------3------3-----|3------3------3------3-----|
hope you come and see me in the movies
e|------ ------ ------ ------|------ ------ ------ ------|
B|---------------------------|---------------------------|
G|0--------------------------|---------------------------|
D|0--------------------------|---------------------------|
A|---------------------------|---------------------------|
D|---------------------------|---------------------------|



C
e|0----- 0----- ------ 0-----|0----- 0---0- ------ 0-----|
B|1------1-------------1-----|1------1---1---------1-----|
G|0------0-------------0-----|0------0---0---------0-----|
D|2------2-------------2-----|2------2---2---------2-----|
A|3--------------------------|3--------------------------|
E|--------------3------------|--------------3------------|

e|------ ------ ------ ------|------ ------ ------ ------|
B|---------------------------|---------------------------|
G|0------0----------0------0-|0------0----------0--------|
D|------------0H2------------|------------0H2------------|
A|---------------------------|---------------------------|
D|---------------------------|---------------------------|



G
e|3----- 3----- 3----- 3-----|3----- 3----- 3----- 3-----|
B|3------3------3------3-----|3------3------3------3-----|
G|0------0------0------0-----|0------0------0------0-----|
D|0------0------0------0-----|0------0------0------0-----|
A|2------2------2------2-----|2------2------2------2-----|
E|3------3------3------3-----|3------3------3------3-----|
Then know that will plainly
I'll you

D
e|2----- 2----- 2----- 2---2-|2----- 2---2- 2---2- 2-----|
B|3------3------3------3---3-|3------3---3--3---3--3-----|
G|2------2------2------2---2-|2------2---2--2---2--2-----|
D|0------0------0------0---0-|0------0---0--0---0--0-----|
A|---------------------------|---------------------------|
E|---------------------------|---------------------------|
see the
e|------ ------ ------ ------|------ ------ ------ ------|
B|---------------------------|---------------------------|
G|---------------------------|---------------------------|
D|---------------------------|0------0-------------------|
A|-------------------0H2-----|--------------2-P-0--------|
D|0-----------2/4------------|---------------------4B5---|



G
e|3----- 3----- 3----- 3-----|3----- 3----- 3----- 3-----|
B|3------3------3------3-----|3------3------3------3-----|
G|0------0------0------0-----|0------0------0------0-----|
D|0------0------0------0-----|0------0------0------0-----|
A|2------2------2------2-----|2------2------2------2-----|
E|3------3------3------3-----|3------3------3------3-----|
biggest fool that hit the big
ever
e|------ ------ ------ ------|------ ------ ------ ------|
B|---------------------------|---------------------------|
G|---------------------------|---------------------------|
D|---------------------------|0-------------0------------|
A|5--------------------------|---------------------------|
D|---------------------------|---------------------------|



C
e|0----- 0----- 0----- 0---0-|0----- 0---0- 0----- 0-----|
B|1------1------1------1---1-|1------1---1--1------1-----|
G|0------0------0------0---0-|0------0---0--0------0-----|
D|2------2------2------2---2-|2------2---2--2------2-----|
A|3------3------3------3---3-|3------3---3--3------3-----|
E|---------------------------|---------------------------|
time and
e|------ ------ ------ ------|------ ------ ------ ------|
B|---------------------------|---------------------------|
G|0------0----------0------0-|0------0----------0--------|
D|------------0H2------------|------------0H2------------|
A|---------------------------|---------------------------|
D|---------------------------|---------------------------|



D
e|2----- 2----- 2----- 2-----|2----- 2---2- 2---2- 2-----|
B|3------3------3------3-----|3------3---3--3---3--3-----|
G|2------2------2------2-----|2------2---2--2---2--2-----|
D|0------0------0------0-----|0------0---0--0---0--0-----|
A|---------------------------|---------------------------|
E|---------------------------|---------------------------|
all I've to do is act naturally
got
e|------ ------ ------ ------|------ ------ ------ ------|
B|---------------------------|---------------------------|
G|---------------------------|-------------------------3-B
D|---------------------------|---------------------------|
A|---------------------------|---------------------------|
D|---------------------------|---------------------------|



G
e|3----- 3----- 3----- 3-----|3----- ------ ------ ------|
B|3------3------3------3-----|3--------------------------|
G|0------0------0------0-----|0--------------------------|
D|0------0------0------0-----|0--------------------------|
A|2------2------2------2-----|2--------------------------|
E|3------3------3------3-----|3--------------------------

e|----0- ------ ------ ------|------ ------ ------ ------|
B|------------2B3------------|---------------------------|
G|4--------------------3B4---|0--------------------------|
D|---------------------------|---------------------------|
A|---------------------------|---------------------------|
D|---------------------------|-------5------4------2-----|


02:20
D
e|2----- 2----- ----2- ------|2----- ----2- 2---2- 2-----|
B|3------3-------------------|3----------3--3---3--3-----|
G|2------2----------2--------|2----------2--2---2--2-----|
D|0------0----------0--------|0----------0--0---0--0-----|
A|---------------------------|---------------------------|
E|---------------------------|---------------------------|

e|------ ------ ------ ------|------ ------ ------ ------|
B|---------------------------|---------------------------|
G|---------------------------|---------------------------|
D|-------0-------------------|-------4----0-2---4--------|
A|------------------3--------|---------------------------|
D|0-----------6/7------------|0--------------------------|



G (.
e|3----- 3----- 3----- 3-----|3----- ------ ------ ------|
B|3------3------3------3-----|3--------------------------|
G|0------0------0------0-----|0--------------------------|
D|0------0------0------0-----|0--------------------------|
A|2------2------2------2-----|2--------------------------|
E|3------3------3------3-----|3--------------------------|

e|------ ------ ------ ------|------ ------ ------ ------|
B|---------------------------|---------------------------|
G|---------------------------|---------------------------|
D|5------5-------------------|---------------------------|
A|--------------6B7----------|---------------------------|
D|---------------------7B8---|5--------------------------|



B Bend
R Release
/ slide up
slide down
H hammer-on
P pull-off
~ vibrato
+ harmonic
x Mute note
. - play note like a dot in standard notation
^ - ties two notes together
(. Pause

-----------------------------
|  , ,   |
|     http://akords.org     |
-----------------------------

 (: 0)
    :
  • Act Naturally 3
  • Act Naturally
  • Drive My Car 2
  • Anytime At All 4
  • I Wanna Know Why
  •  
    , . '.

    ':*
    E-Mail:*
    :
    , : *
     
      

    BLIBL-