|  
 
:  
  : :  
      ?    

  |

akords.org » B » Beatles » Across The Universe 5

Beatles - Across The Universe 5 

This is a fun way to finger pick Across the Universe


Verse 1
D Bm F#m
e:---2-------2-------2-------2-------2-------2-------2-------2-----|
B:-------3-------3-------3-------3-------2-------2-------2-------2-|
G:-----2-------2-------4-------4-------2-------2-------2-------2---|
D:-0-------0-------4-------4-------4-------4-------4-------4-------|
A:-----------------------------------------------------------------|
E:-----------------------------------------------------------------|

E7 A A7
e:---0-------0-------0-------0-------0-------0-------0-------0-----|
B:-------0-------0-------0-------0-------3-------3-------3-------3-|
G:-----0-------0-------0-------0-------3-------3-------0-------0---|
D:-0-------0-------0-------0-------3-------3-------3-------3-------|
A:-----------------------------------------------------------------|
E:-----------------------------------------------------------------|

D Bm F#m
e:---2-------2-------2-------2-------2-------2-------2-------2-----|
B:-------3-------3-------3-------3-------2-------2-------2-------2-|
G:-----2-------2-------4-------4-------2-------2-------2-------2---|
D:-0-------0-------4-------4-------4-------4-------4-------4-------|
A:-----------------------------------------------------------------|
E:-----------------------------------------------------------------|

E7 Gm
e:---0-------0-------3-------3-------3-------3-----|
B:-------0-------0-------3-------3-------3-------3-|
G:-----0-------0-------3-------3-------3-------3---|
D:-0-------0-------5-------5-------5-------5-------|
A:-------------------------------------------------|
E:-------------------------------------------------|

Chorus
D
e:---2-------2-------2-------2-------2-------2-------2-------2-----|
B:-------3-------3-------3-------3-------3-------3-------3-------3-|
G:-----2-------2-------2-------2-------2-------2-------2-------2---|
D:-0-------0-------0-------0-------0-------0-------0--------0------|
A:-----------------------------------------------------------------|
E:-----------------------------------------------------------------|

A7sus4
e:---0-------0-------0-------0-----|
B:-------3-------3-------3-------3-|
G:-----0-------0-------0-------0---|
D:-2-------2-------2-------2-------|
A:---------------------------------|
E:---------------------------------|

A7
e:---0-------0-------0-------0-------0-------0-------0-------0-----|
B:-------2-------2-------2-------2-------2-------2-------2-------2-|
G:-----0-------0-------0-------0-------0-------0-------0-------0---|
D:-2-------2-------2-------2-------2-------2-------2-------2-------|
A:-----------------------------------------------------------------|
E:-----------------------------------------------------------------|

G D
e:---3-------3-------3-------3-------2-------2-------2-------2-----|
B:-------0-------0-------0-------0-------3-------3-------3-------3-|
G:-----0-------0-------0-------0-------2-------2-------2-------2---|
D:-0-------0-------0-------0-------0-------0-------0-------0-------|
A:-----------------------------------------------------------------|
E:-----------------------------------------------------------------|

A7
e:---0-------0-------0-------0-------0-------0-------0-------0-----|
B:-------2-------2-------2-------2-------2-------2-------2-------2-|
G:-----0-------0-------0-------0-------0-------0-------0-------0---|
D:-2-------2-------2-------2-------2-------2-------2-------2-------|
A:-----------------------------------------------------------------|
E:-----------------------------------------------------------------|

G D
e:---3-------3-------3-------3-------2-------2-------2-------2-----|
B:-------0-------0-------0-------0-------3-------3-------3-------3-|
G:-----0-------0-------0-------0-------2-------2-------2-------2---|
D:-0-------0-------0-------0-------0-------0-------0-------0-------|
A:-----------------------------------------------------------------|
E:-----------------------------------------------------------------|

Verse 2
D Bm F#m
e:---2-------2-------2-------2-------2-------2-------2-------2-----|
B:-------3-------3-------3-------3-------2-------2-------2-------2-|
G:-----2-------2-------4-------4-------2-------2-------2-------2---|
D:-0-------0-------4-------4-------4-------4-------4-------4-------|
A:-----------------------------------------------------------------|
E:-----------------------------------------------------------------|

E7 A A7
e:---0-------0-------0-------0-------0-------0-------0-------0-----|
B:-------0-------0-------0-------0-------3-------3-------3-------3-|
G:-----0-------0-------0-------0-------3-------3-------0-------0---|
D:-0-------0-------0-------0-------3-------3-------3-------3-------|
A:-----------------------------------------------------------------|
E:-----------------------------------------------------------------|

D Bm F#m
e:---2-------2-------2-------2-------2-------2-------2-------2-----|
B:-------3-------3-------3-------3-------2-------2-------2-------2-|
G:-----2-------2-------4-------4-------2-------2-------2-------2---|
D:-0-------0-------4-------4-------4-------4-------4-------4-------|
A:-----------------------------------------------------------------|
E:-----------------------------------------------------------------|

E7 A A7
e:---0-------0-------0-------0-------0-------0-------0-------0-----|
B:-------0-------0-------0-------0-------3-------3-------3-------3-|
G:-----0-------0-------0-------0-------3-------3-------0-------0---|
D:-0-------0-------0-------0-------3-------3-------3-------3-------|
A:-----------------------------------------------------------------|
E:-----------------------------------------------------------------|

Chorus
D
e:---2-------2-------2-------2-------2-------2-------2-------2-----|
B:-------3-------3-------3-------3-------3-------3-------3-------3-|
G:-----2-------2-------2-------2-------2-------2-------2-------2---|
D:-0-------0-------0-------0-------0-------0-------0--------0------|
A:-----------------------------------------------------------------|
E:-----------------------------------------------------------------|

A7sus4
e:---0-------0-------0-------0-----|
B:-------3-------3-------3-------3-|
G:-----0-------0-------0-------0---|
D:-2-------2-------2-------2-------|
A:---------------------------------|
E:---------------------------------|

A7
e:---0-------0-------0-------0-------0-------0-------0-------0-----|
B:-------2-------2-------2-------2-------2-------2-------2-------2-|
G:-----0-------0-------0-------0-------0-------0-------0-------0---|
D:-2-------2-------2-------2-------2-------2-------2-------2-------|
A:-----------------------------------------------------------------|
E:-----------------------------------------------------------------|

G D
e:---3-------3-------3-------3-------2-------2-------2-------2-----|
B:-------0-------0-------0-------0-------3-------3-------3-------3-|
G:-----0-------0-------0-------0-------2-------2-------2-------2---|
D:-0-------0-------0-------0-------0-------0-------0-------0-------|
A:-----------------------------------------------------------------|
E:-----------------------------------------------------------------|

A7
e:---0-------0-------0-------0-------0-------0-------0-------0-----|
B:-------2-------2-------2-------2-------2-------2-------2-------2-|
G:-----0-------0-------0-------0-------0-------0-------0-------0---|
D:-2-------2-------2-------2-------2-------2-------2-------2-------|
A:-----------------------------------------------------------------|
E:-----------------------------------------------------------------|

G D
e:---3-------3-------3-------3-------2-------2-------2-------2-----|
B:-------0-------0-------0-------0-------3-------3-------3-------3-|
G:-----0-------0-------0-------0-------2-------2-------2-------2---|
D:-0-------0-------0-------0-------0-------0-------0-------0-------|
A:-----------------------------------------------------------------|
E:-----------------------------------------------------------------|

Verse 3
D Bm F#m
e:---2-------2-------2-------2-------2-------2-------2-------2-----|
B:-------3-------3-------3-------3-------2-------2-------2-------2-|
G:-----2-------2-------4-------4-------2-------2-------2-------2---|
D:-0-------0-------4-------4-------4-------4-------4-------4-------|
A:-----------------------------------------------------------------|
E:-----------------------------------------------------------------|

E7 Gm
e:---0-------0-------3-------3-------3-------3-----|
B:-------0-------0-------3-------3-------3-------3-|
G:-----0-------0-------3-------3-------3-------3---|
D:-0-------0-------5-------5-------5-------5-------|
A:-------------------------------------------------|
E:-------------------------------------------------|

D Bm F#m
e:---2-------2-------2-------2-------2-------2-------2-------2-----|
B:-------3-------3-------3-------3-------2-------2-------2-------2-|
G:-----2-------2-------4-------4-------2-------2-------2-------2---|
D:-0-------0-------4-------4-------4-------4-------4-------4-------|
A:-----------------------------------------------------------------|
E:-----------------------------------------------------------------|

E7 A A7
e:---0-------0-------0-------0-------0-------0-------0-------0-----|
B:-------0-------0-------0-------0-------3-------3-------3-------3-|
G:-----0-------0-------0-------0-------3-------3-------0-------0---|
D:-0-------0-------0-------0-------3-------3-------3-------3-------|
A:-----------------------------------------------------------------|
E:-----------------------------------------------------------------|

Chorus
D
e:---2-------2-------2-------2-------2-------2-------2-------2-----|
B:-------3-------3-------3-------3-------3-------3-------3-------3-|
G:-----2-------2-------2-------2-------2-------2-------2-------2---|
D:-0-------0-------0-------0-------0-------0-------0--------0------|
A:-----------------------------------------------------------------|
E:-----------------------------------------------------------------|

A7sus4
e:---0-------0-------0-------0-----|
B:-------3-------3-------3-------3-|
G:-----0-------0-------0-------0---|
D:-2-------2-------2-------2-------|
A:---------------------------------|
E:---------------------------------|

A7
e:---0-------0-------0-------0-------0-------0-------0-------0-----|
B:-------2-------2-------2-------2-------2-------2-------2-------2-|
G:-----0-------0-------0-------0-------0-------0-------0-------0---|
D:-2-------2-------2-------2-------2-------2-------2-------2-------|
A:-----------------------------------------------------------------|
E:-----------------------------------------------------------------|

G D
e:---3-------3-------3-------3-------2-------2-------2-------2-----|
B:-------0-------0-------0-------0-------3-------3-------3-------3-|
G:-----0-------0-------0-------0-------2-------2-------2-------2---|
D:-0-------0-------0-------0-------0-------0-------0-------0-------|
A:-----------------------------------------------------------------|
E:-----------------------------------------------------------------|

A7
e:---0-------0-------0-------0-------0-------0-------0-------0-----|
B:-------2-------2-------2-------2-------2-------2-------2-------2-|
G:-----0-------0-------0-------0-------0-------0-------0-------0---|
D:-2-------2-------2-------2-------2-------2-------2-------2-------|
A:-----------------------------------------------------------------|
E:-----------------------------------------------------------------|

G D
e:---3-------3-------3-------3-------2-------2-------2-------2-----|
B:-------0-------0-------0-------0-------3-------3-------3-------3-|
G:-----0-------0-------0-------0-------2-------2-------2-------2---|
D:-0-------0-------0-------0-------0-------0-------0-------0-------|
A:-----------------------------------------------------------------|
E:-----------------------------------------------------------------|

Ending (Fading out)
D
e:---2-------2-------2-------2-------2-------2-------2-------2-----|
B:-------3-------3-------3-------3-------3-------3-------3-------3-|
G:-----2-------2-------2-------2-------2-------2-------2-------2---|
D:-0-------0-------0-------0-------0-------0-------0--------0------|
A:-----------------------------------------------------------------|
E:-----------------------------------------------------------------|

-----------------------------
|  , ,   |
|     http://akords.org     |
-----------------------------

 (: 0)
    :
  • I Wish I Was Queer So I Could Get Chicks
  • Put The Finger On You
  • Lucky
  • Feeling This
  • Pathetic
  •  
    , . '.

    ':*
    E-Mail:*
    :
    , : *
     
      

    BLIBL-