|  
 
:  
  : :  
      ?    

  |

akords.org » B » Beatles » Across The Universe 4

Beatles - Across The Universe 4 

-----------------------------------------------------------------------
ACROSS THE UNIVERSE - The Beatles
-----------------------------------------------------------------------

Tabbed by: deepsleepr13hrs

Email:a_dead_dogs_eye@yahoo.com

Tuning: Standard: eBGDAE

Don’t complain if you think its crappy go do a better tab if you dislike mine. This took
while to do and I welcome all suggestions. It’ll take some time to get the transitions
chord to chord with the right positions and with the time right. Have fun with this
song. I know this isn’t how he played it but it sounds pretty good.

|2---10---9-7-5----------------------------------|
|---------------7-0-0-0-0-0-0-0-0-0-0-0-0-0-0-0-0|
|2---11---9-7-6---0-2-0-2-0-2-0-2-0-2-0-2-0-2-0-2|
|--0----0---------2-2-2-2-2-2-2-2-0-0-0-0-0-0-0-0|
|-----------------2-2-2-2-2-2-2-2-2-2-2-2-2-2-2-2|
|-----------------0-0-0-0-0-0-0-0-3-3-3-3-3-3-3-3|

C Em Dm7 G G7
|---------------|----------------|-1---1---1---1--|-3---3---3---1-----|
|1-1-1-1-1---1--|----------------|-1---1---1---1--|-0---0---0---0-----|
|0---0---0-2-0-2|-0-2-0-2-0-2-0-2|-2-0-2-0-2-0-2-0|-0-2-0-2-0-2-0-----|
|2---2---2---2--|-2---2---2---2--|-0---0---0---0--|-0---0---0---0-3-0-|
|--------3---3--|-2---2---2---2--|----------------|-2---2---2---2-----|
|---------------|----------------|----------------|-3---3---3---3-----|
|Words are |rain into a |slither while | way across the |
|flowing Out |paper cup, they |they pass; | universe. |
|like endless | |they slip a- | |

C Em Dm F
|---------------|----------------|1-3-1-3|-1-0------|
|1-1-1-1-1---1--|----------------|3---3--|-1---3----|
|0---0---0-2-0-2|-0-2-0-2-0-2-0-2|2---2--|-2---2-2-2|
|2---2---2---2--|-2---2---2---2--|-------|-3---3-3-3|
|--------3---3--|-2---2---2---2--|-------|----------|
|---------------|----------------|-------|----------|
|Pools of |drifting thru |sessing and |
|sorrow, waves |opened mind, |caressing me. |
|of joy are |pos- | |

C/G (?)
|-----------0----|
|-------1-1-0-h-1|
|-0---0----------|
|---2---2-2------|
|-----3---3------|
|-3--------------|
|Jai Guru |

Dm7/G G7 F C
|0------|1------|---------------|1------|1----------|--------|
|3-1-1--|3-1---1|3-3-1-3-1-p-0-3|3-1---1|1-1-1-1---1|1-1---1-|
|0---0--|0---0--|0-------2------|----0--|2-2-2-2-2-2|----0---|
|--2-2--|-------|0--------------|-------|3---3---3-3|2-------|
|----3-3|-------|2-2-3-2-------0|-------|----3-----3|--------|
|-------|-------|3--------------|-------|-----------|--------|
|Deva. | Om. |Nothing’s gonna|world. |Nothing’s | world. |
| | |change my | |gonna | |
| | | | |change my | |

G7 F C
|---------------|1------|1----------|-------|
|3-3-1-3-1-----3|3-1--1-|1-1-1-1---1|-------|
|0-------2-p-0--|---0---|2-2-2-2-2-2|----0--|
|0--------------|-------|3---3---3-3|2------|
|2-2-3-2-------0|-------|----3-----3|3-3---3|
|3--------------|-------|-----------|-------|
|Nothing’s gonna|world. |Nothing’s |world. |
|change my | |gonna | |
| | |change my | |


C Em Dm7 G G7
|---------------|----------------|-1---1---1---1--|-3---3---3---1-----|
|1-1-1-1-1---1--|----------------|-1---1---1---1--|-0---0---0---0-----|
|0---0---0-2-0-2|-0-2-0-2-0-2-0-2|-2-0-2-0-2-0-2-0|-0-2-0-2-0-2-0-----|
|2---2---2---2--|-2---2---2---2--|-0---0---0---0--|-0---0---0---0-3-0-|
|--------3---3--|-2---2---2---2--|----------------|-2---2---2---2-----|
|---------------|----------------|----------------|-3---3---3---3-----|
|Images of |dance before me |eyes they call | across the |
|broken light |like a million, |me on and on | universe. |
|which | | a- | |

C Em Dm7 G G7
|---------------|----------------|-1---1---1---1--|-3---3---3---1-----|
|1-1-1-1-1---1--|----------------|-1---1---1---1--|-0---0---0---0-----|
|0---0---0-2-0-2|-0-2-0-2-0-2-0-2|-2-0-2-0-2-0-2-0|-0-2-0-2-0-2-0-----|
|2---2---2---2--|-2---2---2---2--|-0---0---0---0--|-0---0---0---0-3-0-|
|--------3---3--|-2---2---2---2--|----------------|-2---2---2---2-----|
|---------------|----------------|----------------|-3---3---3---3-----|
|Thoughts |wind inside a |tumble blindly |way across the |
|meander like a |letter box; |as they |universe. |
|restless |they |make their | |

C/G
|-----------0----|
|-------1-1-0-h-1|
|-0---0----------|
|---2---2-2------|
|-----3---3------|
|-3--------------|
|Jai Guru |
| |
| |


Dm7/G G7 F C
|0------|1------|---------------|1------|1----------|--------|
|3-1-1--|3-1---1|3-3-1-3-1-p-0-3|3-1---1|1-1-1-1---1|1-1---1-|
|0---0--|0---0--|0-------2------|----0--|2-2-2-2-2-2|----0---|
|--2-2--|-------|0--------------|-------|3---3---3-3|2-------|
|----3-3|-------|2-2-3-2-------0|-------|----3-----3|--------|
|-------|-------|3--------------|-------|-----------|--------|
|Deva. | Om. |Nothing’s gonna|world. |Nothing’s | world. |
| | |change my | |gonna | |
| | | | |change my | |

G7 F C
|---------------|1------|1----------|-------|
|3-3-1-3-1-----3|3-1---1|1-1-1-1---1|-------|
|0-------2-p-0--|----0--|2-2-2-2-2-2|----0--|
|0--------------|-------|3---3---3-3|2------|
|2-2-3-2-------0|-------|----3-----3|3-3---3|
|3--------------|-------|-----------|-------|
|Nothing’s gonna|world. |Nothing’s |world. |
|change my | |gonna | |
| | |change my | |

C Em Dm F
|---------------|----------------|1-3-1-3|-1-0------|
|1-1-1-1-1---1--|----------------|3---3--|-1---3----|
|0---0---0-2-0-2|-0-2-0-2-0-2-0-2|2---2--|-2---2-2-2|
|2---2---2---2--|-2---2---2---2--|-------|-3---3-3-3|
|--------3---3--|-2---2---2---2--|-------|----------|
|---------------|----------------|-------|----------|
|Sounds of |ringing through |citing |viting me.|
|laughter shades|my opened ears |and in-| |
|of earth are |in- | | |

C Em Dm7 G G7
|---------------|----------------|-1---1---1---1--|-3---3---3---1-----|
|1-1-1-1-1---1--|----------------|-1---1---1---1--|-0---0---0---0-----|
|0---0---0-2-0-2|-0-2-0-2-0-2-0-2|-2-0-2-0-2-0-2-0|-0-2-0-2-0-2-0-----|
|2---2---2---2--|-2---2---2---2--|-0---0---0---0--|-0---0---0---0-3-0-|
|--------3---3--|-2---2---2---2--|----------------|-2---2---2---2-----|
|---------------|----------------|----------------|-3---3---3---3-----|
|Thoughts |wind inside a |tumble blindly |way across the |
|meander like a |letter box; |as they |universe. |
|restless |they |make their | |

C/G
|-----------0----|
|-------1-1-0-h-1|
|-0---0----------|
|---2---2-2------|
|-----3---3------|
|-3--------------|
|Jai Guru |

Dm7/G G7 F C
|0------|1------|---------------|1------|1----------|--------|
|3-1-1--|3-1---1|3-3-1-3-1-p-0-3|3-1---1|1-1-1-1---1|1-1---1-|
|0---0--|0---0--|0-------2------|----0--|2-2-2-2-2-2|----0---|
|--2-2--|-------|0--------------|-------|3---3---3-3|2-------|
|----3-3|-------|2-2-3-2-------0|-------|----3-----3|--------|
|-------|-------|3--------------|-------|-----------|--------|
|Deva. | Om. |Nothing’s gonna|world. |Nothing’s | world. |
| | |change my | |gonna | |
| | | | |change my | |

G7 F C
|---------------|1------|1----------|-------|
|3-3-1-3-1-----3|3-1---1|1-1-1-1---1|-------|
|0-------2-p-0--|----0--|2-2-2-2-2-2|----0--|
|0--------------|-------|3---3---3-3|2------|
|2-2-3-2-------0|-------|----3-----3|3-3---3|
|3--------------|-------|-----------|-------|
|Nothing’s gonna|world. |Nothing’s |world. |
|change my | |gonna | |
| | |change my | |

C
|-----------0----|0------|
|-------1-1-0-h-1|3-1-1--|
|-0---0----------|0---0--|
|---2---2-2------|--2-2--|
|-----3---3------|----3-3|
|-3--------------|-------|
|Jai Guru |Deva. |

C
|-----------0----|0------|
|-------1-1-0-h-1|3-1-1--|
|-0---0----------|0---0--|
|---2---2-2------|--2-2--|
|-----3---3------|----3-3|
|-3--------------|-------|
|Jai Guru |Deva. |

C
|-----------0----|0------|
|-------1-1-0-h-1|3-1-1--|
|-0---0----------|0---0--|
|---2---2-2------|--2-2--|
|-----3---3------|----3-3|
|-3--------------|-------|
|Jai Guru |Deva. |

C
|-----------0----|0------|
|-------1-1-0-h-1|3-1-1--|
|-0---0----------|0---0--|
|---2---2-2------|--2-2--|
|-----3---3------|----3-3|
|-3--------------|-------|
|Jai Guru |Deva. |

C
|-----------0----|0------|
|-------1-1-0-h-1|3-1-1--|
|-0---0----------|0---0--|
|---2---2-2------|--2-2--|
|-----3---3------|----3--|
|-3--------------|-------|
|Jai Guru |Deva. |
|[Fade] | |

Chords:

C Em
Words are flowing out like endless rain into a paper cup,
Dm7 G G7
they slither while they pass; they slip away across the universe.
C Em
Pools of sorrow, waves of joy are drifting through my opened mind,
Dm F
possessing and caressing me.
C Dm7/G
Jai Guru Deva. Om.
G7
Nothing’s gonna change my world.
F C
Nothing’s gonna change my world.
G7
Nothing’s gonna change my world.
F C
Nothing’s gonna change my world.
C Em Dm7
Images of broken light which dance before me like a million eyes, they
G G7
call me on and on across the universe.
C Em Dm7
Thoughts meander like a restless wind inside a letter box; they tumble
G G7
blindly as they make their way across the universe.
C Dm7/G
Jai Guru Deva. Om.
G7
Nothing’s gonna change my world.
F C
Nothing’s gonna change my world.
G7
Nothing’s gonna change my world.
F C
Nothing’s gonna change my world.
C Em
Sounds of laughter, shades of earth are ringing through my opened ear
F
inciting and inviting me.
C Em Dm7
Limitless, undying love which shines around me like a million suns it
G G7
calls me on and on across the universe.
C Dm7/G
Jai Guru Deva. Om.
G7
Nothing’s gonna change my world.
F C
Nothing’s gonna change my world.
G7
Nothing’s gonna change my world.
F C
Nothing’s gonna change my world.
C
Jai Guru Deva.
C
Jai Guru Deva.
C
Jai Guru Deva.
C
Jai Guru Deva.
C
Jai Guru Deva.
[Fade]

Chords used:

C Em Dm7 G G7 Dm F Dm7/G (?)
|e| |0| |0| |1| |3| |1| |1| |1| |1|
|B| |1| |0| |1| |0| |0| |3| |1| |1|
|G| |0| |0| |2| |0| |0| |2| |2| |0|
|D| |2| |2| |0| |0| |0| |0| |3| |0|
|A| |3| |2| |-| |2| |2| |-| |3| |-|
|E| |-| |-| |-| |3| |3| |-| |1| |-|

| / slide up
| slide down
| h hammer-on
| p pull-off
| ~ vibrato
| + harmonic
| x Mute note
===============================================================

-----------------------------
|  , ,   |
|     http://akords.org     |
-----------------------------

 (: 0)
    :
  • Across The Universe 8
  • Across The Universe 10
  • Across The Universe 3
  • Across The Universe 9
  • Across The Univers
  •  
    , . '.

    ':*
    E-Mail:*
    :
    , : *
     
      

    BLIBL-