|  
 
:  
  : :  
      ?    

  |

akords.org » B » Beatles » Across The Universe 3

Beatles - Across The Universe 3 

-----------------------------------------------------------------------

THE BEATLES - ACROSS THE UNIVERSE (Lennon/McCartney) This version was
first released on a charity album for the World Wildlife
Fund on 12th December 1969. Also released on 9th August
1988, as part of THE BEATLES PAST MASTERS VOL 2.

-----------------------------------------------------------------------

Tabbed by:PJVillanueva






Words are flowing out like
endless rain into a paper cup
They slither while they pass
They slip away across the universe
Pools of sorrow waves of joy
Are drifting through my open mind
Possessing and caressing me

Jai guru deva om
Nothing's gonna change my world
Nothing's gonna change my world
Nothing's gonna change my world
Nothing's gonna change my world

Images of broken light which
dance before me like a million eyes
That call me on and on across the universe
Thoughts meander like a
restless wind inside a letter box
they tumble blindly as
they make their way across the universe

Jai guru deva om
Nothing's gonna change my world
Nothing's gonna change my world
Nothing's gonna change my world
Nothing's gonna change my world

Sounds of laughter shades of life
are ringing through my open ears
exciting and inviting me
Limitless undying love which
shines around me like a million suns
It calls me on and on across the universe

Jai guru deva om
Nothing's gonna change my world
Nothing's gonna change my world
Nothing's gonna change my world
Nothing's gonna change my world
Jai guru deva
Jai guru deva




4/4


e|-------- -------- -------- --------|2-----/- 10------ 9---7--- 5-------|
B|-----------------------------------|-------------------------------7---|
G|-----------------------------------|2-----/--10-------9---7----6-------|
D|-----------------------------------|----0--------0---------------------|
A|-----------------------------------|-----------------------------------|
E|-----------------------------------|-----------------------------------|

e|-------- -------- -------- --------|5------- 10------ -9------ --------|
B|-----------------------------------|7--------10-------10--12---10--12--|
G|-----------------------------------|7--------11-------11--11---11--11--|
D|-----------------------------------|-----------------------------------|
A|-----------------------------------|-----------------------------------|
E|-----------------------------------|-----------------------------------|





F#m F#sus4 ... A Aadd9 ...
e|2---2--- 2---2--- 2---2--- 2---2---|-------- -------- -------- --------|
B|2---2----2---2----2---2----2---2---|2---2----2---2----2---2----2---2---|
G|2---4----2---4----2---4----2---4---|2---4----2---4----2---4----2---4---|
D|4---4----4---4----4---4----4---4---|2---2----2---2----2---2----2---2---|
A|-----------------------------------|0---0----0---0----0---0----0---0---|
E|-----------------------------------|-----------------------------------|

e|-------- -------- -------- --------|-------- -------- -------- --------|
B|2---2----2---2----2---2----2---2---w2--w2---w2--w2---w2--w2---w2--w2---|
G|2---4----2---4----2---4----2---4---w2--w4---w2--w4---w2--w4---w2--w4---|
D|4---4----4---4----4---4----4---4---w2--w2---w2--w2---w2--w2---w2--w2---|
A|-----------------------------------|-----------------------------------|
E|-----------------------------------|-----------------------------------|




D Bm F#m
e|2---2--- 2---2--- 2---2--- 2---2---|2---2-2- 2---2--- 2---2--- 2-------|
B|3---3----3---3----3---3----3---3-x-|2---2-2--2---2----2---2----2---0---|
G|2---2----2---2----4---4----4---4-x-|2---2-2--2---2----2---2----2---0---|
D|0---0----0---0----4---4----4---4-x-|4---4-4--4---4----4---4----4---0---|
A|------------------2---2----2---2---|4---4-4--4---4----4---4----4-------|
E|-----------------------------------|-----------------------------------|
Words are flying out like endless rain into a paper cup they
ew2--w2---w2--w2---w2-------w2-------w2--w2---w2--w2---w2--w2---w2-------|
Bw3--w3---w3--w3---w3-------w3-------w2--w2---w2--w2---w2--w2---w2--w0---|
Gw2--w2---w2--w2---w4-------w4-------w2--w2---w2--w2---w2--w2---w2--w0---|
D|-----------------------------------|-----------------------------------|
A|-----------------------------------|-----------------------------------|
E|-----------------------------------|-----------------------------------|




Em7 A A7
e|0---0-0- 0---0-0- 0---0--- 0-0-0---|0---0--- 0---0--- 0---0--- 3---3---|
B|3---3-3--3---3-3--3---3----3-3-3---|2---2----2---2----2---2----2---2---|
G|0---0-0--0---0-0--0---0----0-0-0---|2---2----2---2----2---2----2---2---|
D|0---0-0--0---0-0--0---0----0-0-0---|2---2----2---2----2---2----2---2---|
A|2---2-2--2---2-2--2---2----2-2-2---|0---0----0---0----0---0----0---0---|
E|0---0-0--0---0-0--0---0----0-0-0---|-----------------------------------|
slither while they pass they slip away across the Universe
ew0--w0---w0--w0---w0-------w0-------w0------- -------- -------- --------|
Bw3--w3---w3--w3---w3-------w3-------w2----------------------------------|
Gw0--w0---w0--w0---w0-------w0-------w2----------------------------------|
Dw2--w2---w2--w2---w2-------w2-------w2----------------------------------|
A|-----------------------------------|-----------------------------------|
E|-----------------------------------|-----------------------------------|






e|3---3---|
B|2---2---|
G|2---2---|
D|2---2---|
A|0---0---|
E|--------|





D Bm F#m
e|2---2--- 2---2--- 2---2-2- 2---2-2-|2---2--- 2-2-2--- 2-2-2--- 2-------|
B|3---3----3---3----3---3-3--3---3-3-|2---2----2-2-2----2-2-2----2---0---|
G|2---2----2---2----4---4-4--4---4-4-|2---2----2-2-2----2-2-2----2---0---|
D|0---0----0---0----4---4-4--4---4-4-|4---4----4-4-4----4-4-4----4---0---|
A|------------------2---2-2--2---2-2-|4---4----4-4-4----4-4-4----4-------|
E|-----------------------------------|-----------------------------------|
Pools of sorrow waves of joy Are drifting through my open mind Pos...
e|--w10--- -------- --w10--- --------|-------- -------- -------- --------|
B|--w-7---------------w-7------------|-----------------------------------|
G|--w-7---------------w-7------------|-----------------------------------|
D|-----------------------------------|-----------------------------------|
A|-----------------------------------|-----------------------------------|
E|-----------------------------------|-----------------------------------|




Em7 Gm
e|0---0--- 0---0--- 3---3-3- 3-3-3-3-|3---3--- 3-------|
B|3---3----3---3----3---3-3--3-3-3-3-|3---3----3-------|
G|0---0----0---0----3---3-3--3-3-3-3-|3---3----3-------|
D|0---0----0---0----5---5-5--5-5-5-5-|5---5----5-------|
A|2---2----2---2----5---5-5--5-5-5-5-|5---5----5-------|
E|-----------------------------------|-----------------|
sessing and caressing me
e|-------- -------- -------- --------w3--w3---w3--w2---|
B|-----------------------------------w3--w3---w3--w3---|
G|-----------------------------------w3--w3---w3--w2---|
D|-----------------------------------|-----------------|
A|-----------------------------------|-----------------|
E|-----------------------------------|-----------------|




D
e|2---2--- 2---2--- 2---2--- 2---2---|2---2--- 2---2--- 2------- 2---2---|
B|3---3----3---3----3---3----3---3---|3---3----3---3----3---3----3---3---|
G|2---2----2---2----2---2----2---2---|2---2----2---2----2---2----2---2---|
D|0---0----0---0----0---0----0---0---|0---0----0---0----0---0----0---0---|
A|-------------0----0---0----0---0---|0---0----0---0----0---0----0---0---|
E|-----------------------------------|-----------------------------------|
Jai guru deva




A A7
e|0---0--- 0------- 0------- 0-------|5---5--- 5---5--- 3------- --------|
B|2---2----2---x----2---2----2----0--|2---2----2---2----2---2----2---2-x-|
G|2---2----2---x----2---2----2----0--|2---2----2---2----2---2----2---2-x-|
D|2---2----2---x----2---2----2----0--|2---2----2---2----2---2----2---2-x-|
A|0---0----0--------0---0----0-------|0---0----0---0----0---0----0---0---|
E|----------------------0------------|-------------0----0---0----0---0---|
Om Nothing's gonna change my world




A G D
e|0-0-0--- 0---0-0- 0---0--- 0-------|3------- 3------- 3---3--- 3---2-2-|
B|2-2-2----2---2-2--2---2----2---0---|3--------3--------3---3----3---3-3-|
G|2-2-2----2---2-2--2---2----2---0---|0--------0--------0---0----0---2-2-|
D|2-2-2----2---2-2--2---2----2---0---|0--------0--------0---0----0---0-0-|
A|0-0-0----0---0-0--0---0----0-------|2--------2--------2---2----2-------|
E|0-0-0----0---0-0--0---0----0-------|3--------3--------3---3----3-------|
Nothing's gonna change my world
(Aaaaaaaaaaaaaaaaaaaaaaaaaaaaaaaaaaaaaah)



A A7
e|2---2--- 2---2-2- 2------- 2-------|5------- -------- 3------- --------|
B|3---3----3---3-3--3---3----3---x---|2---2----2---x----2---2----2-------|
G|2---2----2---2-2--2---2----2---x---|2---2----2---x----2---2----2-------|
D|0---0----0---0-0--0---0----0---x---|2---2----2---x----2---2----2-------|
A|0---0----0---0-0--0---0----0-------|0---0----0--------0---0----0-------|
E|-----------------------------------|0---0----0--------0---0----0-------|
Nothing's gonna change my world
(Aaaaaaaaaaaaaaaaaaaaaaaaaaaaaaaaaaaaaah)



A G
e|0---0--- 0---0-0- 0---0--- 0-------|3------- 3------- 3---3--- 3---2---|
B|2---2----2---2-2--2---2----2----0--|3--------3--------3---3----3---3---|
G|2---2----2---2-2--2---2----2----0--|0--------0--------0---0----0---2---|
D|2---2----2---2-2--2---2----2----0--|0--------0--------0---0----0---0---|
A|0---0----0---0-0--0---0----0-------|2--------2--------2---2----2-------|
E|-----------------------------------|3--------3--------3---3----3-------|
Nothing's gonna change my world
(Aaaaaaaaaaaaaaaaaaaaaaaaaaaaaaaaaaaaaah)



D
e|2---2--- 2-----2- 2---2--- 2-------|
B|3---3----3---3-3--3---3----3---3---|
G|2---2----2---2-2--2---2----2---2---|
D|0---0----0---0-0--0---0----0---0---|
A|0---0----0---0-0--0---0----0---0---|
E|-----------------------------------|

(Aaaaaaaaaaaaaaaaaaaaaaaaaaaaaaaaaaaaaah)



D Bm F#m
e|2---2--- 2---2--- 2---2--- 2---2---|2---2-2- 2---2--- 2---2--- 2-------|
B|3---3----3---3----3---3----3---3---|2---2-2--2---2----2---2----2---0---|
G|2---2----2---2----4---4----4---4---|2---2-2--2---2----2---2----2---0---|
D|0---0----0---0----4---4----4---4---|4---4-4--4---4----4---4----4---0---|
A|------------------2---2----2---2---|4---4-4--4---4----4---4----4-------|
E|-----------------------------------|-----------------------------------|
Images of broken light which dance before me like a million eyes
e|-------- -------- -------- --------|-------- -------- --------w10------|
B|-----------------------------------|--------------------------w12------|
G|-----------------------------------|--------------------------w11------|
D|-----------------------------------|--------------------------w12------|
A|-----------------------------------|-----------------------------------|
E|-----------------------------------|-----------------w10---------------|




Em7 A A7
e|0---0-0- 0---0-0- 0-0-0--- 0---0---|0---0--- 0---0--- 0---0--- 3---3---|
B|3---3-3--3---3-3--3-3-3----2---3---|2---2----2---2----2---2----2---2---|
G|0---0-0--0---0-0--0-0-0----0---0---|2---2----2---2----2---2----2---2---|
D|0---0-0--0---0-0--0-0-0----0---0---|2---2----2---2----2---2----2---2---|
A|2---2-2--2---2-2--2-2-2----2---2---|0---0----0---0----0---0----0---0---|
E|0---0-0--0---0-0--0-0-0----0---0---|-----------------------------------|
That call me on and on across the Universe
e|-------- -------- -------- --------|-------- -------- -------- --------|
B|-----------------------------------|------------w14--------------------|
G|-----------------------------------|---w14------w14--------------------|
Dw14---------------------------------|-----------------------------------|
A|-----------------------------------|-----------------------------------|
E|-----------------------------------|-----------------------------------|




D Bm F#m
e|2---2--- 2---2--- 2---2-2- 2-2-2---|2---2--- 2-2-2--- 2-2-2--- 2-------|
B|3---3----3---3----3---3-3--3-3-3---|2---2----2-2-2----2-2-2----2---0---|
G|2---2----2---2----4---4-4--4-4-4---|2---2----2-2-2----2-2-2----2---0---|
D|0---0----0---0----4---4-4--4-4-4---|4---4----4-4-4----4-4-4----4---0---|
A|------------------2---2-2--2-2-2---|4---4----4-4-4----4-4-4----4-------|
E|-----------------------------------|-----------------------------------|
Thoughts meander like a restless wind inside a letter box they
e|-------- -------- -------- --------|--------w5--w5---w5--w5--- --------|
B|-----------------------------------|--------w7--w7---w7--w7---w0--w0---|
G|-----------------------------------|--------w6--w6---w6--w6------------|
D|-----------------------------------|--------w7--w7---w7--w7------------|
A|-----------------------------------|-----------------------------------|
E|-----------------------------------|-----------------------------------|




Em7 A A7
e|0---0--- 0---0-0- 0---0--- 0-0-0---|0---0--- 0--0-0-- 0---0--- 0---0---|
B|3---3----3---3-3--3---3----3-3-3---|2---2----2--2-2---2---2----2---2---|
G|0---0----0---0-0--0---0----0-0-0---|2---2----2--2-2---2---2----2---2---|
D|0---0----0---0-0--0---0----0-0-0---|2---2----2--2-2---2---2----2---2---|
A|2---2----2---2-2--2---2----2-2-2---|0---0----0--0-0---0---0----0---0---|
E|0---0----0---0-0--0---0----0-0-0---|-----------------------------------|
tumble blindly as they make their way across the Universe





e|3---3---|
B|2---2---|
G|2---2---|
D|2---2---|
A|0---0---|
E|--------|




D
e|2---2--- 2-2-2--- 2---2-2- 2---2---|2---2--- 2-2-2--- 2------- 2-------|
B|3---3----3-3-3----3---3-3--3---3---|3---3----3-3-3----3---3----3---3---|
G|2---2----2-2-2----2---2-2--2---2---|2---2----2-2-2----2---2----2---2---|
D|0---0----0-0-0----0---0-0--0---0---|0---0----0-0-0----0---0----0---0---|
A|0---0----0-0-0----0---0-0--0---0---|0---0----0-0-0----0---0----0---0---|
E|-----------------------------------|-----------------------------------|
Jai guru deva
e|-------- -------- -------- --------|-------- -------- -------- --------|
B|-----------------w7-----------w7---|---w7----------------w7---w7-------|
G|-----------------w7--w7-------w7---w7--w7-------w7---w7--w7---w7--w7---|
D|---------------------w7------------w7-----------w7---w7-----------w7---|
A|-----------------------------------|-----------------------------------|
E|-----------------------------------|-----------------------------------|




A A7
e|0---0--- 0------- 0------- 0-------|5------- 5------- 3------- 3-------|
B|2---2----2---2----2---2----2---2---|2--------2--------2--------2-------|
G|2---2----2---2----2---2----2---2---|2--------2--------2--------2-------|
D|2---2----2---2----2---2----2---2---|2--------2--------2--------2-------|
A|0---0----0---0----0---0----0---0---|0--------0--------0--------0-------|
E|-------------0--------0--------0---|-----------------------------------|
Om Nothing's gonna change my world
e|-------- -------- -------- --------|-------- -------- -------- --------|
B|--------w5----------------w5-------|------------------------------w5---|
G|--------w6--w6---w6-------w6--w6---|--------w6--w6-------w6-------w6---|
D|------------w7---w7-----------w7---|--------w7--w7-------w7------------|
A|-----------------------------------|-----------------------------------|
E|-----------------------------------|-----------------------------------|




A G D
e|0---0--- 0---0-0- 0---0-0- 0-------|3---3--- 3---3--- 3------- 3-------|
B|2---2----2---2-2--2---2-2--2---0---|3---3----3---3----3--------3---3---|
G|2---2----2---2-2--2---2-2--2---0---|0---0----0---0----0--------0---0---|
D|2---2----2---2-2--2---2-2--2---0---|0---0----0---0----0--------0---0---|
A|0---0----0---0-0--0---0-0--0-------|2---2----2---2----2--------2---2---|
E|-----------------------------------|3---3----3---3----3--------3---3---|
Nothing's gonna change my world
(Aaaaaaaaaaaaaaaaaaaaaaaaaaaaaaaaaaaaah)
e|-------- -------- -------- --------|-------- -------- -------- --------|
B|--------w5--w5---w5--w5---w5--w3---w3-----------w3----------------w3---|
G|--------w6--w6---w6--w6---w6--w4---w4-------w4--w4----------------w4---|
D|--------w7--w7---w7--w7---w7--w5---w5-------w5-------------------------|
A|-----------------------------------|-----------------------------------|
E|-----------------------------------|-----------------------------------|




A A7
e|2---2--- 2---2-2- 2------- 2-------|5------- -------- 3------- --------|
B|3---3----3---3-3--3---3----3---3---|2---2----2---x----2---2----2---x---|
G|2---2----2---2-2--2---2----2---2---|2---2----2---x----2---2----2---x---|
D|0---0----0---0-0--0---0----0---0---|2---2----2---x----2---2----2---x---|
A|0---0----0---0-0--0---0----0---0---|0---0----0--------0---0----0-------|
E|-----------------------------------|-----------------------------------|
Nothing's gonna change my world
(Aaaaaaaaaaaaaaaaaaaaaaaaaaaaaaaaaaaaah)
e|-------- -------- -------- --------|-------- -------- -------- --------|
Bw7-------w7--w7---w7--w7---w7-------|-----------------------------------|
Gw7-------w7--w7---w7--w7---w7-------|-----------------------------------|
Dw7-------w7--w7---w7--w7---w7-------|-----------------------------------|
A|-----------------------------------|-----------------------------------|
E|-----------------------------------|-----------------------------------|




A G
e|0---0--- 0---0-0- 0---0--- 0-0-----|3---3--- 3---3-3- 3---3--- 3---3---|
B|2---2----2---2-2--2---2----2-2--0--|3---3----3---3-3--3---3----3---3---|
G|2---2----2---2-2--2---2----2-2--0--|0---0----0---0-0--0---0----0---0---|
D|2---2----2---2-2--2---2----2-2--0--|0---0----0---0-0--0---0----0---0---|
A|0---0----0---0-0--0---0----0-0-----|2---2----2---2-2--2---2----2---2---|
E|-----------------------------------|3---3----3---3-3--3---3----3---3---|
Nothing's gonna change my world
(Aaaaaaaaaaaaaaaaaaaaaaaaaaaaaaaaaaaaah)
e|-------- -------- -------- --------|-------- -------- -------- --------|
B|--------w5--w5---w5-------w5--w3---|-----------------------------------|
G|--------w6--w6---w6-------w6--w4---|-----------------------------------|
D|--------w7--w7---w7-------w7--w5---|-----------------------------------|
A|-----------------------------------|-----------------------------------|
E|-----------------------------------|-----------------------------------|




D
e|2---2-2- 2---2-2- 2------- 2-------|
B|3---3-3--3---3-3--3---3----3---3---|
G|2---2-2--2---2-2--2---2----2---2---|
D|0---0-0--0---0-0--0---0----0---0---|
A|0---0-0--0---0-0--0---0----0---0---|
E|-----------------------------------|
(Aaaaaaaaaaaaaaaaaaaaaaaaaaaaaaaaaaaaah)






D Bm F#m
e|2---2--- 2---2--- 2---2-2- 2-2-2---|2---2--- 2---2--- 2---2--- 2-------|
B|3---3----3---3----3---3-3--3-3-3---|2---2----2---2----2---2----2---0---|
G|2---2----2---2----4---4-4--4-4-4---|2---2----2---2----2---2----2---0---|
D|0---0----0---0----4---4-4--4-4-4---|4---4----4---4----4---4----4---0---|
A|------------------2---2-2--2-2-2---|4---4----4---4----4---4----4-------|
E|-----------------------------------|-----------------------------------|
Sounds of laughter shades of life are ringing through my open ears ex...
e|-------- -------- -------- --------|-------- -------- -------- --------|
B|-----------------------------------|--------------------------+12------|
G|-----------------------------------|-----------------------------------|
D|-----------------------------------|-----------------------------------|
A|-----------------------------------|-----------------------------------|
E|-----------------------------------|-----------------------------------|




Em7 Gm
e|0---0--- 0---0--- 3---3--- --3-3---|3---3--- 3-------|
B|3---3----3---3----3---3------3-3---|3---3----3---x---|
G|0---0----0---0----3---3------3-3---|3---3----3---x---|
D|0---0----0---0----5---5------5-5---|5---5----5---x---|
A|2---2----2---2----5---5------5-5---|5---5----5-------|
E|-----------------------------------|-----------------|
citing and inviting me
e10------- -------- -------- --------w3--w3---w3--w2---|
Bw8----------------------------------w3--w3---w3--w3---|
Gw9----------------------------------w3--w3---w3--w2---|
Dw9----------------------------------|-----------------|
A|-----------------------------------|-----------------|
E|-----------------------------------|-----------------|




D Bm F#m
e|2---2--- 2---2-2- 2---2-2- 2-2-2---|2---2--- 2---2--- 2---2--- 2-------|
B|3---3----3---3-3--3---3-3--3-3-3---|2---2----2---2----2---2----2---0---|
G|2---2----2---2-2--4---4-4--4-4-4---|2---2----2---2----2---2----2---0---|
D|0---0----0---0-0--4---4-4--4-4-4---|4---4----4---4----4---4----4---0---|
A|------------------2---2-2--2-2-2---|4---4----4---4----4---4----4-------|
E|-----------------------------------|-----------------------------------|
Limitless undying love which shines around me like a million
ew2------- -------- -------- --------|-------- -------- -------- w7------|
Bw3----------------------------------|--------------------------w8-------|
Gw2----------------------------------|-----------------------------------|
D|-----------------------------------|-----------------------------------|
A|-----------------------------------|-----------------------------------|
E|-----------------------------------|-----------------------------------|




Em7 A A7
e|0---0-0- 0-0-0-0- 0-0-0--- 0---0---|0---0--- 0-0-0--- 0-0-0--- 3-------|
B|3---3-3--3-3-3-3--3-3-0----2---3---|2---2----2-2-2----2-2-2----2---2---|
G|0---0-0--0-0-0-0--0-0-0----0---0---|2---2----2-2-2----2-2-2----2---2---|
D|0---0-0--0-0-0-0--0-0-0----0---0---|2---2----2-2-2----2-2-2----2---2---|
A|2---2-2--2-2-2-2--2-2-2----2---2---|0---0----0-0-0----0-0-0----0---0---|
E|0---0-0--0-0-0-0--0-0-0----0---0---|-----------------------------------|
suns It calls me on and on across the Universe
e|-------- -------- -------- --------|-------- --------w7/9----- -----w9|
Bw3--w3---w3-------------------------|-----------------------------------|
Gw4--w4---w4-------------------------|-----------------w7/9-----------w9|
Dw5--w5---w5-------------------------|-----------------------------------|
A|-----------------------------------|-----------------------------------|
E|-----------------------------------|-----------------------------------|




D
e|2---2--- 2---2--- 2---2--- 2---2---|2---2--- 2-2-2--- 2-2-2--- 2-------|
B|3---3----3---3----3---3----3---3---|3---3----3-3-3----3-3-3----3---3---|
G|2---2----2---2----2---2----2---2---|2---2----2-2-2----2-2-2----2---2---|
D|0---0----0---0----0---0----0---0---|0---0----0-0-0----0-0-0----0---0---|
A|0---0----0---0----0---0----0---0---|0---0----0-0-0----0-0-0----0---0---|
E|-----------------------------------|-----------------------------------|
Jai guru deva
e|-------- -------- -------- --------|-------- -------- -------- --------|
B|-----------------------------------|--------------------------w3-------|
G|-----------------------------------|---w2-------w2----------------w2---|
D|-----------------------------------w4-------w4-------------------------|
A|-----------------------------------|-----------------------------------|
E|-----------------------------------|-----------------------------------|




A A7
e|0---0--- 0------- 0------- 0-------|5------- 5------- 3------- 3-------|
B|2---2----2---2----2---2----2---0---|2---2----2---2----2---2----2---2---|
G|2---2----2---2----2---2----2---0---|2---2----2---2----2---2----2---2---|
D|2---2----2---2----2---2----2---0---|2---2----2---2----2---2----2---2---|
A|0---0----0---0----0---0----0-------|0---0----0---0----0---0----0---0---|
E|----0----0---0----0---0----0-------|0---0----0---0----0---0----0---0---|
Om Nothing's gonna change my world
e|-------- -------- -------- --------|-------- -------- -------- --------|
B|--------w5--w5---w5--w5---w5-------|-----------------------------------|
G|--------w6--w6---w6--w6---w6-------|-----------------------------------|
D|--------w7--w7---w7--w7---w7-------|-----------------------------------|
A|-----------------------------------|-----------------------------------|
E|-----------------------------------|-----------------------------------|




A G
e|0---0--- 0---0-0- 0---0-0- 0-------|3---3--- 3---3--- 3---3--- 3-------|
B|2---2----2---2-2--2---2-2--2---0---|3---3----3---3----3---3----3---0---|
G|2---2----2---2-2--2---2-2--2---0---|0---0----0---0----0---0----0---0---|
D|2---2----2---2-2--2---2-2--2---0---|0---0----0---0----0---0----0---0---|
A|0---0----0---0-0--0---0-0--0-------|2---2----2---2----2---2----2-------|
E|0---0----0---0-0--0---0-0--0-------|3---3----3---3----3---3----3-------|
Nothing's gonna change my world
(Aaaaaaaaaaaaaaaaaaaaaaaaaaaaaaaaaaaaaah)
e|-------- -------- -------- --------|-------- -------- -------- --------|
B|------------w5---w5--w5---w5--w3---|-----------------w2----------------|
G|------------w6---w6--w6---w6--w4---|-----------------w4----------------|
D|------------w7---w7--w7---w7--w5---|-----------------w5----------------|
A|-----------------------------------|-----------------------------------|
E|-----------------------------------|-----------------------------------|





D A A7
e|2---2-2- 2---2--- 2---2--- 2---2---|5------- -------- 3------- --------|
B|3---3-3--3---3----3---3----3---3---|2---2----2---2----2---2----2---2---|
G|2---2-2--2---2----2---2----2---2---|2---2----2---2----2---2----2---2---|
D|0---0-0--0---0----0---0----0---0---|2---2----2---2----2---2----2---2---|
A|0---0-0--0---0----0---0----0---0---|0---0----0---0----0---0----0---0---|
E|-----------------------------------|-------------0----0---0----0---0---|
Nothing's gonna change my world
(Aaaaaaaaaaaaaaaaaaaaaaaaaaaaaaaaaaaaah)
e|-------- -------- -------- --------|-------- -------- -------- --------|
B|--------w7--w7---w7-------w7-------w5----------------------------------|
G|--------w7--w7---w7-------w7-------w6----------------------------------|
D|--------w7--w7---w7-------w7-------w7----------------------------------|
A|-----------------------------------|-----------------------------------|
E|-----------------------------------|-----------------------------------|




A G
e|0---0--- 0---0-0- 0---0--- 0-------|3---3--- 3---3--- 3---3-3- 3---3---|
B|2---2----2---2-2--2---2----2---0---|3---3----3---3----3---3-3--3---3---|
G|2---2----2---2-2--2---2----2---0---|0---0----0---0----0---0-0--0---0---|
D|2---2----2---2-2--2---2----2---0---|0---0----0---0----0---0-0--0---0---|
A|0---0----0---0-0--0---0----0-------|2---2----2---2----2---2-2--2---2---|
E|-----------------------------------|3---3----3---3----3---3-3--3---3---|
Nothing's gonna change my world
(Aaaaaaaaaaaaaaaaaaaaaaaaaaaaaaaaaaaaah)
e|-------- -------- -------- --------|-------- -------- -------- --------|
B|---w5------------w5-------w5-------w3----------------------------------|
G|---w6------------w6-------w6-------w4----------------------------------|
D|---w7------------w7-------w7-------w5----------------------------------|
A|-----------------------------------|-----------------------------------|
E|-----------------------------------|-----------------------------------|





D
e|2---2--- 2---2-2- 2---2-2- 2-------|
B|3---3----3---3-3--3---3-3--3---3---|
G|2---2----2---2-2--2---2-2--2---2---|
D|0---0----0---0-0--0---0-0--0---0---|
A|0---0----0---0-0--0---0-0--0---0---|
E|-----------------------------------|
(Aaaaaaaaaaaaaaaaaaaaaaaaaaaaaaaaaaaaah)
e|-------- -------- -------- --------|
B|--------w7--w7---w7-------w7-------|
G|--------w7--w7---w7-------w7-------|
D|--------w7--w7---w7-------w7-------|
A|-----------------------------------|
E|-----------------------------------|






e|2---2--- 2------- 2---2--- 2---2---|2---2--- 2------- 2---2--- 2-------|
B|3---3----3---3----3---3----3---3---|3---3----3---3----3---3----3---3---|
G|2---2----2---2----2---2----2---2---|2---2----2---2----2---2----2---2---|
D|0---0----0---0----0---0----0---0---|0---0----0---0----0---0----0---0---|
A|0---0----0---0----0---0----0---0---|0---0----0---0----0---0----0---0---|
E|-----------------------------------|-----------------------------------|
Jai guru deva
e|-------- -------- -------- --------|-------- -------- -------- ---w10--|
Bw7----------------------------------|---------------------w10-----------|
Gw7----------------------------------|--------------------------w11------|
Dw7----------------------------------|-----------------------------------|
A|-----------------------------------|-----------------------------------|
E|-----------------------------------|-----------------------------------|




D
e|2---2-2- 2---2--- 2-2-2--- 2---2---|----2--- 2------- ----2--- 2-------|
B|3---3-3--3---3----3-3-3----3---3---|3---3----3---3----3---3----3---3---|
G|2---2-2--2---2----2-2-2----2---2---|2---2----2---2----2---2----2---2---|
D|0---0-0--0---0----0-0-0----0---0---|0---0----0---0----0---0----0---0---|
A|0---0-0--0---0----0-0-0----0---0---|0---0----0---0----0---0----0---0---|
E|-----------------------------------|-----------------------------------|
Jai guru deva
(guru deva)
e|-------- -------- -------- --------|-------- -------- -------- --------|
B|---w10-----------------------------|-----------------------------------|
G|------------w11--------------------|-----------------------------------|
D|-----------------------------------|0---0--------------------------0---|
A|-----------------------------------|------------------0---2----4-------|
E|-----------------------------------|---------2---3---------------------|




D
e|2---2--- 2---2-2- 2---2--- ----2---|----2--- 2------- 2---2-2- 2-------|
B|3---3----3---3-3--3---3--------3---|----3----3---3----3---3-3--3---3---|
G|2---2----2---2-2--2---2--------2---|----2----2---2----2---2-2--2---2---|
D|0---0----0---0-0--0---0--------0---|----0----0---0----0---0-0--0---0---|
A|0---0----0---0-0--0---0--------0---|----0----0---0----0---0-0--0---0---|
E|-----------------------------------|-----------------------------------|
Jai guru deva
(Jai guru deva)
e|-------- -------- -------- --------|-------- -------- -------- --------|
B|-----------------------------------|-----------------------------------|
G|-----------------------------------|-----------------------------------|
D|0---0--------------------------0---|0------------------------------0---|
A|------------------0---2----4-------|------------------0---2----4-------|
E|---------2---3---------------------|---------2---3---------------------|

...............Fade................


D
e|2-2-2--- 2---2-2- 2-2-2--- ----2---|2---2--- 2-2-2--- 2---2-2- 2-------|
B|3-3-3----3---3-3--3-3-3--------3---|3---3----3-3-3----3---3-3--3---3---|
G|2-2-2----2---2-2--2-2-2--------2---|2---2----2-2-2----2---2-2--2---2---|
D|0-0-0----0---0-0--0-0-0--------0---|0---0----0-0-0----0---0-0--0---0---|
A|0-0-0----0---0-0--0-0-0--------0---|0---0----0-0-0----0---0-0--0---0---|
E|-----------------------------------|-----------------------------------|
Jai guru deva
(Jai guru deva)
e|-------- -------- -------- --------|-------- -------- -------- --------|
B|-----------------------------------|-----------------------------------|
G|-----------------------------------|-----------------------------------|
D|0---0--------------------------0---|0------------------------------0---|
A|------------------0---2----4-------|------------------0---2----4-------|
E|---------2---3---------------------|---------2---3---------------------|

.......................................................................


D
e|2---2--- 2-2-2--- 2---2-2- 2-------|2---2-2- 2---2--- 2---2--- 2-------|
B|3---3----3-3-3----3---3-3--3---3---|3---3-3--3---3----3---3----3---3---|
G|2---2----2-2-2----2---2-2--2---2---|2---2-2--2---2----2---2----2---2---|
D|0---0----0-0-0----0---0-0--0---0---|0---0-0--0---0----0---0----0---0---|
A|0---0----0-0-0----0---0-0--0---0---|0---0-0--0---0----0---0----0---0---|
E|-----------------------------------|-----------------------------------|
Jai guru deva
(Jai guru deva)
e|-------- -------- -------- --------|-------- -------- -------- --------|
B|-----------------------------------|-----------------------------------|
G|-----------------------------------|-----------------------------------|
D|----0--------------------------0---|0------------------------------0---|
A|------------------0---2----4-------|------------------0---2----4-------|
E|---------2---3---------------------|---------2---3---------------------|

.......................................................................



D
e|2---2--- 2------- 2---2-2- 2-------|2---2--- 2---2--- 2------- 2-------|
B|3---3----3---3----3---3-3--3---3---|3---3----3---3----3---3----3---3---|
G|2---2----2---2----2---2-2--2---2---|2---2----2---2----2---2----2---2---|
D|0---0----0---0----0---0-0--0---0---|0---0----0---0----0---0----0---0---|
A|0---0----0---0----0---0-0--0---0---|0---0----0---0----0---0----0---0---|
E|-----------------------------------|-----------------------------------|
Jai guru deva
(Jai guru deva)
e|-------- -------- -------- --------|-------- -------- -------- --------|
B|-----------------------------------|-----------------------------------|
G|-----------------------------------|-----------------------------------|
D|----0--------------------------0---|0---0--------------------------0---|
A|------------------0---2----4-------|------------------0---2----4-------|
E|---------2---3---------------------|---------2---3---------------------|

.......................................................................









B Bend
R Release
/ Slide up
Slide down
H Hammer-on
P Pull-off
~ Vibrato
+ Harmonic
x Mute note
. Play note like a dot in standard notation
^ Ties two notes together
(. Pause
w Wah

-----------------------------
|  , ,   |
|     http://akords.org     |
-----------------------------

 (: 0)
    :
  • Across The Universe 8
  • Across The Universe 10
  • Across The Universe 9
  • Across The Universe 4
  • Across The Univers
  •  
    , . '.

    ':*
    E-Mail:*
    :
    , : *
     
      

    BLIBL-