|  
 
:  
  : :  
      ?    

  |

akords.org » B » Beatles » Across The Univers

Beatles - Across The Univers 

Across The Universe
(Lennon/McCartney)


Intro :

-|--0-----/8-----7--5--3-----------------------------------------------------|
-|------------------------5--0--0--0--0--0--0--0--0--0--0--0--0--0--0--0--0--|
-|-----0--/9-----7--5--4-----0--2--0--2--0--2--0--2--0--2--0--2--0--2--0--2--|
-|---------------------------2--2--2--2--2--2--2--2--0--0--0--0--0--0--0--0--|
-|--3------------------------2--2--2--2--2--2--2--2--2--2--2--2--2--2--2--2--|
-|------------8--------------0--0--0--0--0--0--0--0--3--3--3--3--3--3--3--3--|



C Am Em
Words are flowing out like endless rain into a paper cup,
Dm G
They slither while they pass, they slip away across the universe
C Am Em
Pools of sorrow, waves of joy are drifting through my open

mind,
Dm Fm
Possessing and caressing me.

C G
Jai guru de va om

Nothing's gonna change my world,
F C
Nothing's gonna change my world.

C Am Em
Images of broken light which dance before me like a million
Dm
eyes,
G
That call me on and on across the universe,
C Am Em
Thoughts meander like a restless wind inside a letter box they
Dm
Tumble blindly as they make their way
G
Across the universe

C G
Jai guru de va om

Nothing's gonna change my world,
F C
Nothing's gonna change my world.




C Am Em
Sounds of laughter shades of earth are ringing
Dm
Through my open views inviting and inciting me
C Am Em
Limitless undying love which shines around me like a
Dm
Million suns, it calls me on and on
G
Across the universe


C G
Jai guru de va om

Nothing's gonna change my world,
F C
Nothing's gonna change my world
G
Nothing's gonna change my world
F C
Nothing's gonna change my world
C
Jai guru de va
C
Jai guru de va ...

-----------------------------
|  , ,   |
|     http://akords.org     |
-----------------------------

 (: 0)
    :
  • Across The Universe 8
  • Across The Universe 10
  • Across The Universe 7
  • Across The Universe 3
  • Across The Universe 4
  •  
    , . '.

    ':*
    E-Mail:*
    :
    , : *
     
      

    BLIBL-