|  
 
:  
  : :  
      ?    

  |

akords.org » B » Beatles » A Hard Days Night

Beatles - A Hard Days Night 

Author/Artist: The Beatles (Lennon/McCartney)
Title: Hard Days Night
Transcribed by: Mr. Moustache
Email: ktulu@cillnet.net

Chords G C9 F C D Bm Em
3 3 1 x 3 2 x
3 3 1 1 2 3 x
0 0 2 0 3 4 0
0 2 3 2 x 4 2
2 3 x 3 x 2 2
3 x x x x x x



C9(let ring for a few seconds)

G C9 G F G
It's been a hard days night, and I've been workin' like a dog
C9 G F G
It's been a hard days night, and I should be sleepin' like a log
C D
But when I get home to you I find the things that you do
G C9 G
They make me feel alright


Bm Em Bm
When I'm home, everything seems to be right
G Em C D
When I'm home, feeling you holding me tight, tight, yeah


You know I work all day, to get you money, to buy you things
And it's worth it just to hear you say, you're gonna give me everything
So why on earth should I moan, cause when I get you alone you know I'll feel OK

G C9 G
You know I feel alright




Both Solos played in unison with 2guitars
2nd solo may be wrong, judge for yourself

------------------------------------------------------------------------------
------------------------------------------------------------------------------
------------------------------------------------------------------------------
--------------------3---3---3---3---------------------------------------------
---------3---3h5-3h5-3h5-3h5-3h5-5p3------------------------------------------
-3-3-3-6---6-------------------------6-3--------------------------------------


------------------------------13-----13-----13-----13-------------------------
-------------13----13h15-13h15--13h15--13h15--13h15--15p13--------------------
-12-12-12-15----15-----------------------------------------15-12--------------
------------------------------------------------------------------------------
------------------------------------------------------------------------------
------------------------------------------------------------------------------

-----------------------------
|  , ,   |
|     http://akords.org     |
-----------------------------

 (: 0)
    :
  • Hard Days Night 4
  • A Hard Days Night 2
  • Hard Days Night 5
  • A Hard Days Night 4
  • Drive My Car 5
  •  
    , . '.

    ':*
    E-Mail:*
    :
    , : *
     
      

    BLIBL-