|  
 
:  
  : :  
      ?    

  |

akords.org » B » Beatles » A Day In The Life Tab 4

Beatles - A Day In The Life Tab 4 

-----------------------------------------------------------

BEATLES - A DAY IN THE LIFE (Lennon & McCartney). From SGT.
PEPPER'S LONELY HEARTS CLUB BAND album. Released
on the 1st June, 1967.

-----------------------------------------------------------

Tabbed by:PJVillanueva






I read the news today oh, boy
About a lucky man who made the grade
And though the news was rather sad
Well, I just had to laugh,
I saw the photograph.

He blew his mind out in a car
He didn't notice that the lights had changed.
A crowd of people stood and stared
They'd seen his face before,
Nobody was really sure If he was from the House of Lords

I saw a film today oh, boy
The english army had just won the war
A crowd of people turned away
But I just had to look
Having read the book
I'd love to turn you on.

Woke up, got out of bed
Dragged a comb across my head
Found my way downstairs and drank a cup
And looking up, I noticed I was late

Found my coat and grabbed my hat
Made the bus in seconds flat
Found my way upstairs and had a smoke
Somebody spoke and I went into a dream
Aaaahhh

I read the news today oh, boy
Four thousand holes in Blackburn, Lancashire
And though the holes were rather small
They had to count them all
Now they know how many holes it takes to fill the Albert Hall
I'd love to turn you on.



4/4

G
e|------- ------- ------- -------|------- ------- ------- ----3--|
B|-------------------------------|----------------------------0--|
G|-------------------------------|----------------------------0--|
D|-------------------------------|----------------------------0--|
A|-------------------------------|----------------------------2--|
E|-------------------------------|----------------------------3--|




G6 Bm Em Em7
e|3---3-- 3---3-- 2---2-- 2------|0------ 0------ 0------ 0------|
B|0---0---0---0---3---3---3---0--|0-------0-------3-------3---0--|
G|0---0---0---0---4---4---4---0--|0---0---0---0---0---0---0---0--|
D|0---0---0---2---4---4---4---0--|2---2---2---2---2---2---2---0--|
A|2---2---2---x---2---2---2------|----2-------2-------2----------|
E|3---3---3---3------------------|----0-------0-------0----------|



7/8
C
e|0------ 0---0-- 0---0-- 0------|0------ 0------ 0------ 0---|
B|1-------1---1---1---1---1------|1-------1-------1-------1---|
G|0---0---0---0---0---0---0---0--|0---0---0---0---0---0---0---|
D|2---2---2---2---2---2---2---2--|2---2---2---2---2---2---2---|
A|3---3---3---3---3---3---3---3--|3---3---3---3---3---3---3---|
E|-------------------------------|----------------------------|

e|------- ------- ------- -------|------- ------- 8------ ----|
B|----------------8---8----------|----8---8-------8---8-------|
G|----9---9-------9---9----------|----9---9-------9---9-------|
D|---10--10------10--10----------|---10--10----------10-------|
A|---10--10----------------------|----------------------------|
E|-------------------------------|----------------------------|



4/4
00:13
G Bm Em Em7
e|3---3-- ----3-- ----2-- 2---0--|----0-- ----0-- ----0-- ----0--|
B|0---0-------0-------3---3---0--|----0-------0-------3-------3--|
G|0---0-------0-------4---4---0--|----0-------0-------0-------0--|
D|0---0-------0-------4---4---0--|2---2---2---2---2---2---2---2--|
A|2---2-------2-------2---2------|2---2---2---2---2---2---2---2--|
E|3---3-------3------------------|0-------0-------0-------0------|

e|3------ 3------ 2------ 2------|0------ 0------ 0------ 0------|
B|3-------3-------3-------3------|3-------3-------3-------3------|
G|0-------0-------0-------0------|0-------0-------0-------0------|
D|-------------------------------|-------------------------------|
A|-------------------------------|-------------------------------|
E|-------------------------------|-------------------------------|
I read news today oh, boy
the



C Cmaj7 Asus2 Am
e|----0-- ----0-- ----0-- ----0--|----0-- 0---0-- 0------ ----0--|
B|----1-------1-------1-------1--|----0---0---0---0---1-------1--|
G|0---0---0---0---0---0---0---0--|2---2---2---2---2---2-------2--|
D|2---2---2---2---2---2---2---2--|2---2---2---2---2---2---2---2--|
A|3-------3-------2-------2------|0-------0-------0-------0------|
E|-------------------------------|-------------------------------|

e|0------ ------- 0------ -------|------- ------- ------- 0------|
B|1---------------0--------------|--------5-----------0---0------|
G|0---------------0--------------|--------5-----------5----------|
D|-------------------------------|--------7-------------7-----7--|
A|-------------------------------|0------------------------------|
E|-------------------------------|-------------------------------|
about a lucky man who made grade
the



00:25
G Bm Em Em7
e|3---3-- 3------ 2---2-- ----0--|----0-- ----0-- 0---0-- 0---0--|
B|0---0---0---x---3---3-------0--|----0-------0---3---3---3---3--|
G|0---0---0---x---4---4-------0--|----0-------0---0---0---0---0--|
D|0---0---0---x---4---4-------2--|2---2---2---2---2---2---2---2--|
A|2---2---2-------2---2----------|2---2---2---2---2---2---2---2--|
E|3---3---3----------------------|0-------0-------0-------0------|

e|3------ 3------ 2------ 2------|0------ 0------ 0------ 0------|
B|3-------3-------3-------3------|3-------3-------3-------3------|
G|0-------0-------0-------0------|0-------0-------0-------0------|
D|-------------------------------|-------------------------------|
A|-------------------------------|-------------------------------|
E|-------------------------------|-------------------------------|
And though news was rather
the sad



C F Em Em7
e|----0-- ----0-- 1---1-- ----1--|----0-- 0---0-- 0---0-- 0---0--|
B|----1-------1---1---1-------1--|0---0---0---0---3---3---3---0--|
G|0---0-------0---2---2-------2--|0---0---0---0---0---0---0---0--|
D|2---2-------2---3---3-------3--|2---2---2---2---2---2---2---2--|
A|3---3-------3---3-------3------|2---2---2---2---2---2---2---2--|
E|----------------1-------1------|0-------0-------0-------0------|

e|0------ ------- 1------ ----1--|0------ ------- 0------ 0------|
B|1---------------1-----------1--|0---------------0-------0------|
G|0---------------2-----------2--|0---------------0-------0------|
D|-------------------------------|-------------------------------|
A|-------------------------------|-------------------------------|
E|-------------------------------|-------------------------------|
Well, just laugh
I had to



C F Em C
e|----0-- 0---0-- 1---1-- 1------|----0-- ----0-- ----0-- 0---3--|
B|----1---1---1---1---1---1---0--|----0-------0-------1---1---0--|
G|0---0---0---0---2---2---2---0--|----0-------0---0---0---0---0--|
D|2---2---2---2---3---3---3---0--|2---2---2---2---2---2---2---0--|
A|3---3---3---3---3-------3------|2---2---2---2---3---3---3------|
E|----------------1-------1------|0-------0----------------------|

e|0------ ------- 1------ -------|0------ ------- 0------ 0------|
B|1---------------1--------------|0---------------1-------1------|
G|0---------------2--------------|0---------------0-------0------|
D|-------------------------------|-------------------------------|
A|-------------------------------|-------------------------------|
E|-------------------------------|-------------------------------|
I saw the photograph.



00:44 x X x X X X XX

e|----3-- ----3-- 2---2-- ----0--|----0-- ----0-- ----0-- 0---0--|
B|----0-------0---3---3-------0--|----0-------0-------3---3---3--|
G|0---0---0---0---4---4-------0--|----0-------0-------0---0---0--|
D|0---0---0---0---4---4-------0--|2---2---2---2---2---2---2---2--|
A|2-------2-------2---2----------|2-------2-------2-------2------|
E|3-------3----------------------|0-------0-------0-------0------|

e|3------ 3------ 2------ 2------|0------ 0------ 0------ 0---0--|
B|3-------3-------3-------3------|3-------3-------3-------3---3--|
G|0-------0-------0-------0------|0-------0-------0-------0---0--|
D|-------------------------------|-------------------------------|
A|-------------------------------|-------------------------------|
E|-------------------------------|-------------------------------|
He his mind out in car
blew a



X x x X XXXX

e|----0-- ------- ----0-- ----0--|----0-- 0---0-- 0---0-- 0------|
B|----1---------------1-------1--|----0---0---0---0---0---0------|
G|0---0-----------0---0---0---0--|2---2---2---2---2---2---2------|
D|2---2-----------2---2---2---2--|2---2---2---2---2---2---2------|
A|3---------------2-------2------|0-------0-------0-------0------|
E|-------------------------------|-------------------------------|

e|0------ ------- 0------ -------|0------ 0------ ------- -------|
B|1---------------0--------------|0-------0-----------0---0------|
G|0---------------0--------------|2-------2-----------5---5------|
D|-------------------------------|----------------------7---7----|
A|-------------------------------|-------------------------------|
E|-------------------------------|-------------------------------|
He didn't that lights changed.
notice the had



X xxxx X xX X X XX

e|----3-- ----3-- 2---2-- ----0--|----0-- ----0-- 0---0-- 0---0--|
B|----0-------0---3---3-------0--|----0-------0---3---3---3---3--|
G|0---0-------0---4---4-------0--|----0-------0---0---0---0---0--|
D|0---0-------0---4---4----------|2---2---2---2---2---2---2---2--|
A|2-------2-------2---2----------|2---2---2---2---2---2---2---2--|
E|3-------3----------------------|0-------0-------0-------0------|

e|3------ ------- 2------ -------|0------ ------- ----0-- 0------|
B|3---------------3--------------|3-------------------3---3------|
G|0---------------0--------------|0-------------------0---0------|
D|-------------------------------|-------------------------------|
A|-------------------------------|-------------------------------|
E|-------------------------------|-------------------------------|
A crowd of people stood stared
and


X

e|----0-- ----0-- ----1-- ----0--|----0-- ----0-- ----0-- -------|
B|----1-------1-------1-------0--|----0-------0-------0-------0--|
G|0---0---0---0-------2-------0--|----0-------0-------0-------0--|
D|2---2---2---2---3---3---3---2--|----2-------2-------0-------0--|
A|3---3---3---3---3-------3------|2---2-------2---2---2---2------|
E|----------------1-------1------|0---------------0-------0------|

e|0------ ------- 1------ -------|0------ ------- 0------ -------|
B|1---------------1--------------|0---------------3--------------|
G|0---------------2--------------|0---------------0--------------|
D|-------------------------------|-------------------------------|
A|-------------------------------|-------------------------------|
E|-------------------------------|-------------------------------|
They'd his face Nobody really he from House Lords
seen before, was sure was the of
if




e|0---0-- 0---0-- ------- 0---0--|
B|1---1---1---1-----------1---1--|
G|0---0---0---0-------0---0---0--|
D|2---2---2---2-------2---2---2--|
A|3---3---3---3-------3---3---3--|
E|-------------------------------|

e|------- ------- 8-----8 8------|
B|--------8-------8-----8-8------|
G|9-------9-------9-----9-9------|
D10------10----------------------|
A10------------------------------|
E|-------------------------------|



01:12
I saw a film today oh, boy
The english army had just won the war
A crowd of people turned away
But i just had to look
Having read the ...


01:36 2/4

e|0------ 0---0-- ----0-- ----0--|----0-- -------|
B|1-------1---1-------1-------1--|----1----------|
G|0-------0---0-------0-------0--|----0----------|
D|2-------2---2-------2-------2--|----2----------|
A|3-------3---3-------3-------3--|----3----------|
E|-------------------------------|---------------|

e|0---0-- 0------ 0------ 0------|0------ 0---0--|
B|1---1---1-------1-------1------|1-------1---1--|
G|0---0---0-------0-------0------|0-------0---0--|
D|-------------------------------|---------------|
A|-------------------------------|---------------|
E|-------------------------------|---------------|
book I'd love to



(Forty Piece Orchestra Glissando).
01:41
Esus2 Em Esus4 E5
e|0---0-- 0---0-- 0---0-- 0---0--|0---0-- 0---0-- 0---0-- 0---0--|
B|0---0---0---0---0---0---0---0--|0---0---0---0---0---0---0---0--|
G|----------------0---0---0---0--|2---2---2---2---4---4---4---4--|
D|4------------------------------|-------------------------------|
A|-------------------------------|-------------------------------|
E|-------------------------------|-------------------------------| ...
turn you on.




02:16
E
e|4---4-- 4---4-- 4---4--|4---4-- 4---4-- 4---4-- 4---4--|
B|5---5---5---5---5---5--|5---5---5---5---5---5---5---5--|
G|4---4---4---4---4---4--|4---4---4---4---4---4---4---4--|
D|-----------------------|-------------------------------|
A|-----------------------|-------------------------------|
E|0---0---0---0---0---0--|0---0---0---0---0---0---0---0--|





e|4---4-- 4---4-- 4---4-- 4---4--|4---4-- 4---4-- 4---4--|
B|5---5---5---5---5---5---5---5--|5---5---5---5---5---5--|
G|4---4---4---4---4---4---4---4--|4---4---4---4---4---4--|
D|-------------------------------|-----------------------|
A|-------------------------------|-----------------------|
E|0---0---0---0---0---0---0---0--|0---0---0---0---0---0--|



xxx x

e|4---4-- 4---4--|
B|5---5---5---5--|
G|4---4---4---4--|
D|---------------|
A|---------------|
E|0---0---0---0--|
Woke
up



02:21

e|4---4-- 4---4-- 4---4-- 4---4--|4---4-- 4---4-- 4---4-- 4---4--|
B|5---5---5---5---5---5---5---5--|5---5---5---5---5---5---4---4--|
G|4---4---4---4---4---4---4---4--|4---4---4---4---4---4---4---4--|
D|-------------------------------|-------------------------------|
A|-------------------------------|-------------------------------|
E|0---0---0---0---0---0---0---0--|0---0---0---0---0---0---0---0--|
fell of bed dragged
out a



e|4---4-- 4---4-- 4---4-- 4---4--|
B|5---5---5---5---5---5---5---5--|
G|4---4---4---4---4---4---4---4--|
D|-------------------------------|
A|-------------------------------|
E|0---0---0---0---0---0---0---0--|
comb across my head



12/8
Dsus2
e|------- ------- ------- -------|------- ------- ------- -------|
B|-----5----------5------------5-|--------5------------5---------|
G|-----7----------7------------7-|--------7------------7---------|
D|--------7----7-------7---------|7----7-------7----------7------|
A|-------------------------------|-------------------------------|
E|-------------------------------|-------------------------------|

e|------- ------- ------- -------|------- ------- ------- -------|
B|------------------------3------|-------------------------------|
G|-------------2-----------------|-----2------------------2------|
D|0------------------------------|----------------0--------------|
A|-------------------------------|-------------------------------|
E|-------------------------------|-------------------------------|
found
my


E E7 E6 E+5 B11
e|0------ 0------ 0------ 0------|-----0- ------- 0------ -------|
B|0-------0-------0-------0------|-----2----------2--------------|
G|1-------1-------1-------1------|-----2----------2--------------|
D|2-------0----------------------|-------------------------------|
A|----------------4-------3------|2---------------2-------2------|
E|-------------------------------|-------------------------------|
way downstairs and drank cup and
a


B
e|0----0- ------- 0------ 0------|0----0- ------- 0------ 2------|
B|0----0----------0-------0------|2----2----------2-------4------|
G|1----1----------1-------1------|2----2----------2-------4------|
D|2-------0----------------------|-------------------------------|
A|----------------4-------3------|2---------------2--------------|
E|-------------------------------|-------------------------------|
looking up, I noticed I was (gasps)
late



e|2------ 2------ 2------ 2------|
B|4-------4-------4-------4------|
G|4-------4-------4-------4------|
D|-------------------------------|
A|-------------------------------|
E|-------------------------------|
Found
my


02:36

e|-----4- ------- 4------ -------|4----4- ------- 4------ -------|
B|-----5----------5--------------|5----5----------5--------------|
G|-----4----------4--------------|4----4----------4--------------|
D|-------------------------------|-------------------------------|
A|-------------------------------|-------------------------------|
E|-------------------------------|-------------------------------|
coat and grabbed my hat Made the





e|4----4- ----4-- ------- -------|
B|5----5------5------------------|
G|4----4------4------------------|
D|-------------------------------|
A|-------------------------------|
E|-------------------------------|
bus in seconds flat




e|------- ------- ------- -------|------- ------- ------- -------|
B|-----5----------5------------5-|--------5---------------5------|
G|-----7----------7------------7-|--------7---------------7------|
D|--------7----7-------7---------|7----7-------7----------7------|
A|-------------------------------|-------------------------------|
E|-------------------------------|-------------------------------|

e|------- ------- ------- -------|------- ------- ------- -------|
B|------------------------3------|-------------------------------|
G|-------------2-----------------|-----2------------------2------|
D|0------------------------------|----------------0--------------|
A|-------------------------------|-------------------------------|
E|-------------------------------|-------------------------------|
Found
my



e|------- 0------ 0------ 0------|-----0- ------- 0----0- -------|
B|--------0-------0-------0------|-----2----------2----2---------|
G|--------1-------1-------1------|-----2----------2----2---------|
D|2-------0----------------------|-------------------------------|
A|----------------4-------3------|-----2----------2--------------|
E|-------------------------------|-------------------------------|
way upstairs and had a smoke




e|0----0- -----0- 0------ -------|-----0- ------- 0----0- -------|
B|0----0-------0--0--------------|-----2----------2----2---------|
G|1----1-------1--1--------------|-----2----------2----2---------|
D|2-------0----------------------|-------------------------------|
A|----------------4-------3------|2---------------2--------------|
E|-------------------------------|-------------------------------|
Somebody spoke and I went into a dream



4/4
02:49 (Twice)
03:04
C G
e|3------ 3---3-- 3---3-- 3---3--|3---3-- 3---3-- 3---3-- 3---3--|
B|5-------5---5---5---5---5---5--|3---3---3---3---3---3---3---3--|
G|5-------5---5---5---5---5---5--|4---4---4---4---4---4---4---4--|
D|5-------5---5---5---5---5---5--|5---5---5---5---5---5---5---5--|
A|3-------3---3---3---3---3---3--|5---5---5---5---5---5---5---5--|
E|-------------------------------|3---3---3---3---3---3---3---3--|
Aaaaaaaaaaaaaaaaaaaaaaaahhhhhhhh ...



D A
e|5---5-- 5---5-- 5---5-- 5---5--|5---5-- 5---5-- 5---5-- 5---5--|
B|7---7---7---7---7---7---7---7--|5---5---5---5---5---5---5---5--|
G|7---7---7---7---7---7---7---7--|6---6---6---6---6---6---6---6--|
D|7---7---7---7---7---7---7---7--|7---7---7---7---7---7---7---7--|
A|5---5---5---5---5---5---5---5--|7---7---7---7---7---7---7---7--|
E|-------------------------------|5---5---5---5---5---5---5---5--|




E
e|0---0-- 0---0-- 0---0-- 0---0--|
B|0---0---0---0---0---0---0---0--|
G|1---1---1---1---1---1---1---1--|
D|2---2---2---2---2---2---2---2--|
A|2---2---2---2---2---2---2---2--|
E|0---0---0---0---0---0---0---0--|
1st time ......................




C
e|3------ 3---3-- 3---3-- 3---3--|
B|5-------5---5---5---5---5---5--|
G|5-------5---5---5---5---5---5--|
D|5-------5---5---5---5---5---5--|
A|3-------3---3---3---3---3---3--|
E|-------------------------------|
2nd time ......................
e|------- ------- ------- -------|
B|-------------------------------|
G|9-----------7---5-----------7--|
D|-------------------------------|
A|7-----------5---3-----------5--|
E|-------------------------------|




03:18 xxx X XX
G Bm E7 D6
e|------- ------- ------- -------|------- ------- ------- -------|
B|3-------3-----3-3---3---3-----3|3-------3-----3-3-----3---3-3--|
G|4-------4-----4-4---4---4-----4|4-------4-----4-4-----4---4-4--|
D|5-------5-----4-4---4---4-----2|2-------2-----0-0---0---0---0--|
A|-------------------------------|-------------------------------|
E|-------------------------------|-------------------------------|

e|------- ------- ------- -------|------- ------- ------- -------|
B|-------------------------------|-------------------------------|
G|-------------------------------|-------------------------------|
D|5------------------------------|-------------------------------|
A|-------------------------------|-------------------------------|
E|3------------------------------|-------------------------------|
I read news today oh, boy
the


X
Asus2 Am
e|------- ------- ------- -------|----0-- 0---0-- ----0-- ----0--|
B|-------------------------------|----0---0---0-------1-------1--|
G|-------------------------------|----2---2---2-------2-------2--|
D|-------------------------------|----2---2---2-------2-------2--|
A|-------------------------------|----0---0---0-------0-------0--|
E|-------------------------------|-------------------------------|
C Cmaj7 Asus2 Am ...
e|0------ 0------ 0------ 0------|------- ----0-- ------- -------|
B|1-------1-------1-------1------|----0---1---1---0---1-------1--|
G|0-------0-------0-------0------|----2---2-------2---2-------2--|
D|-------------------------------|-------------------------------|
A|3-------3-------2-------2------|0-------------------0-------0--|
E|-------------------------------|-------------------------------|
Four holes Blackburn,
thousand in Lancashire



xxxx x XXXX X XXXX
G Em7 Em
e|3------ ------- ------- -------|----0-- 0---0-- ------- -------|
B|0---0--------------------------|----3---3---3-------0-------0--|
G|0---0--------------------------|----0---0---0-------0---0---0--|
D|0---0--------------------------|----2---2---2-------2---2---2--|
A|2------------------------------|2---------------2-------2------|
E|3------------------------------|0---------------0-------0------|

e|------- ------- ------- -------|------- ------- ------- -------|
B|--------3---3-------3---3---3--|----3---3-----------3-------3--|
G|--------4---5-------4---4---4--|----4---4-----------4-------4--|
D|5---------------4--------------|2---------------0-------5------|
A|-------------------------------|-------------------------------|
E|-------------------------------|-------------------------------|
And though were small
the rather
holes


X
C F Em Em7
e|0---0-- 0---0-- ----1-- 1---1--|0---0-- ----0-- ----0-- ----0--|
B|1---1---1---1-------1---1---1--|0---0-------0-------3-------3--|
G|0---0---0---0-------2---2---2--|0---0-------0-------0-------0--|
D|2---2---2---2-------3---3---3--|2---2-------2-------0-------0--|
A|3---3---3---3-------3---3---3--|2---2-------2-------2-------2--|
E|--------------------1---1---1--|0---0-------0-------0-------0--|

e|0------ 0------ 1------ 1------|0------ 0------ 0------ 0------|
B|1-------1-------1-------1------|0-------0-------3-------3------|
G|0-------0-------2-------2------|0-------0-------0-------0------|
D|-------------------------------|-------------------------------|
A|-------------------------------|-------------------------------|
E|-------------------------------|-------------------------------|
They to them Now know holes fill Hall
had count all they many it to the
how takes Albert



C
e|0---0-- 0---0-- ----0-- ----0--|0---0-- -------|
B|1---1---1---1-------1-------1--|1---1----------|
G|0---0---0---0-------0-------0--|0---0----------|
D|2---2---2---2-------2-------2--|2---2----------|
A|3---3---3---3-------3-------3--|3---3----------|
E|-------------------------------|---------------|

e|------- ------8 8----12 12--15-|------- ----12-|
B|------8-8-----8-8----13-13-----|------------13-|
G|9-----9-9-----9-9----12-12-----|------------12-|
D10----1010----------------------|---------------|
A10------------------------------|---------------|
E|-------------------------------|---------------|
I'd love to



(Ending Orchestra Glissando)
03:46

e|0---0-- 0---0-- 0---0-- 0---0--|0---0-- 0---0-- 0---0-- 0---0--|
B|0---0---0---0---0---0---0---0--|0---0---0---0---0---0---0---0--|
G|----------------0---0---0---0--|2---2---2---2---4---4---4---4--|
D|4------------------------------|-------------------------------|
A|-------------------------------|-------------------------------|
E|-------------------------------|-------------------------------| ...
turn you on.



04:21

e|0------ ------- ------- -------|------- ------- ------- -------|
B|0------------------------------|-------------------------------|
G|1------------------------------|-------------------------------|
D|2------------------------------|-------------------------------|
A|2------------------------------|-------------------------------|
E|0------------------------------|-------------------------------|
(Fortissimo pedal sustained E triad chord).



The ending chord was played on three pianos by John, Paul,
Ringo and Mal Evans and it was multitracked four times.
Geoff Emerick handled the faders for the chord to last as
much as possible (they got 45 seconds).
The monster Orchestra glissandos were recorded four times
in mono before being mixed to the master.





B Bend
R Release
/ Slide up
Slide down
H Hammer-on
P Pull-off
~ Vibrato
+ Harmonic
x Mute note
. Play note like a dot in standard notation
^ Ties two notes together
(. Pause

-----------------------------
|  , ,   |
|     http://akords.org     |
-----------------------------

 (: 0)
    :
  • A Day In The Life 5
  • A Day In The Life 6
  • A Day In The Life 7
  • Sgt Peppers Lonely Hearts Club Band
  • Youve Got To Hide Your Love Away
  •  
    , . '.

    ':*
    E-Mail:*
    :
    , : *
     
      

    BLIBL-