Зробити стартовою  |  Додати в вибране
 
Пошук по сайту:  
  логін: пароль:  
    Реєстрація на сайті   Нагадати пароль?    

Видавництво Симфонія | Книжкова фабрика

akords.org » B » Barrett Syd » Wined And Dined
Знайти необхідні акорди

Barrett Syd - Wined And Dined  табулатура

Intro:
~~~~~~
E|--0--0----------1---3---0-|
B|--2--2--x--x----1---1---2-|
G|--2--2--x--x----2---2---2-|
D|--2--2--x--x----3---3---2-|
A|--0--0------------------0-|
E|--------------------------|

Riff a:
~~~~~~~

E|--0--0----------1---3--|--0---0---------2--5--|--0--0---0--0---0--0-|
B|--2--2--x--x----1---1--|--2---2--x--x---3--3--|--2--2---0--0---2--2-|
G|--2--2--x--x----2---2--|--2---2--x--x---2--2--|--2--2---1--1---2--2-|
D|--2--2--x--x----3---3--|--2---2--x--x---0--0--|--2--2---2--2---2--2-|
A|--0--0-----------------|--0---0---------------|--0--0---2--2---0--0-|
E|-----------------------|----------------------|---------0--0--------|

Verses (w/Riff A):
~~~~~~~~~~~~~~~~~~

A F A D A E A
Wined and dined, oh it seemed just like a dream!
A F A D A E A E
Girl was so kind. kind of love I'd never seen

E D A E
only last summer, it's not so long ago...
E D E
just last summer, now must winds blow...

Wined and dined, oh it seemed just like a dream!
Girl was so kind.
kind of love I'd never seen
only last summer, it's not so long ago...
just last summer, now must winds blow...

Chalk underfoot, life I should prove
dancing in heat, our love and you...

Wined and dined, oh it seemed just like a dream!
Girl was so kind.
kind of love I'd never seen
only last summer, it's not so long ago...
just last summer, now must winds blow...

-----------------------------
|  акорди, навчання, відео  |
|     http://akords.org     |
-----------------------------

 (голосів: 0)
   Інші пісні:
  • Girls Of Summer
  • Summer Night City
  • Train Kept A Rollin 2
  • Mr Moonlight
  • Train Kept A Rollin 2
  •  
    Шановний відвідувач, Ви зайшли на сайт як незареєстрований користувач. Ми рекомендуємо Вам реєструватися або зайти на сайт під своїм ім'ям.

    Додавання коментаря

    Ім'я:*
    E-Mail:*
    Коментар:
    Введіть два слова, показані на зображенні: *
     
      

    BLIBL-створити сайт безкоштовно