Зробити стартовою  |  Додати в вибране
 
Пошук по сайту:  
  логін: пароль:  
    Реєстрація на сайті   Нагадати пароль?    

Видавництво Симфонія | Книжкова фабрика

akords.org » B » Barrett Syd » Golden Hair
Знайти необхідні акорди

Barrett Syd - Golden Hair  табулатура

Main Riff:
|--0-----0----0---------0-------0---0--0---------|
|--5----3----1--/--6---5-------0---2--2---------|
|--4----2----0--/--5---4-------1---2--2---------|
|-------------------------------2---2--2---------|
|-------------------------------2---0--0---------|
|-------------------------------0----------------|

Lean out your window, golden hair
I heard you singing in the midight air
my book is closed, I read no more
watching the fire dance, on the floor
I've left my book,
I've left my room

For I heard you singing through the gloom
singing and singing, a merry air
lean out the window, golden hair...

-----------------------------
|  акорди, навчання, відео  |
|     http://akords.org     |
-----------------------------

 (голосів: 0)
   Інші пісні:
  • Thank You For The Music
  • Till There Was You
  • Window Window
  • Till There Was You
  • Til There Was You
  •  
    Шановний відвідувач, Ви зайшли на сайт як незареєстрований користувач. Ми рекомендуємо Вам реєструватися або зайти на сайт під своїм ім'ям.

    Додавання коментаря

    Ім'я:*
    E-Mail:*
    Коментар:
    Введіть два слова, показані на зображенні: *
     
      

    BLIBL-створити сайт безкоштовно