|  
 
:  
  : :  
      ?    

  |

akords.org » B » Backstreet Boys » Get Down Bass

Backstreet Boys - Get Down Bass 

-------------------------------------------------------------------------------
GET DOWN - Backstreet Boys
-------------------------------------------------------------------------------
Tabbed by: metallhead
Email: homesticky@gmail.com

Tuning: D A D G

Gtr I (D A D G) - 'Bass'

Q=113
4/4
Gtr I
W E E E E E E E E E E E E +E E E E E E E E E E E E
|----------|-----------------|-------------------|------------------|
|----------|-----------------|-------------------|------------------|
|----------|-----------------|-------------------|------------------|
|----------|-6-1---1-2-1---1-|-5-1---2-(2)-1-0-1-|-6-1---1-2-1---1--|


E E E E Q Q E E E E E E E E E E E E +E E E E E E E E E E E E
|---------------|-----------------|-------------------|-----------------|
|---------------|-----------------|-------------------|-----------------|
|---------------|-----------------|-------------------|-----------------|
|-5-1-6-8-9--8--|-6-1---1-2-1---1-|-5-1---2-(2)-1-0-1-|-6-1---1-2-1---1-|


E E E E Q Q Q E E Q Q Q E E Q Q Q E E Q Q
|---------------|--------------|--------------|--------------|
|---------------|--------------|--------------|--------------|
|---------------|--------------|-2----2-2-----|-2------------|
|-5-1-6-8-9--8--|-6----1-1--1--|-----------4--|------1-2--2--|


Q E E Q Q Q E E Q Q Q E E Q Q Q E E Q Q
|--------------|--------------|--------------|--------------|
|--------------|--------------|--------------|--------------|
|--------------|--------------|-2----2-2-----|-2------------|
|-6----4-4--4--|-6----1-1--1--|-----------4--|------1-2--2--|


Q E E Q Q E E Q Q Q E E E E Q E E E E Q Q Q
|--------------|--------------|----------------|--------------|
|--------------|--------------|----------------|--------------|
|--------------|--------------|-------2--------|--------------|
|-6----4-4--4--|-2---2--2-----|-4-6-1---4----4-|-2---2--2-----|


E E E E E E E E E E Q Q Q E E E E Q E E E E Q Q Q
|-----------------|--------------|----------------|--------------|
|-----------------|--------------|----------------|--------------|
|-------2---------|--------------|-------2--------|--------------|
|-4-6-1---4-4-1-4-|-2---2--2-----|-4-6-1---4----4-|-2---2--2-----|


E E E E E E Q E E E E E E E E E E E E +E E E E E E E E E E E E
|----------------|-----------------|-------------------|-----------------|
|----------------|-----------------|-------------------|-----------------|
|----------------|-----------------|-------------------|-----------------|
|-4---4---4---6--|-6-1---1-2-1---1-|-5-1---2-(2)-1-0-1-|-6-1---1-2-1---1-|


E E E E Q Q E E E E E E E E E E E E +E E E E E E E E E E E E
|---------------|-----------------|-------------------|-----------------|
|---------------|-----------------|-------------------|-----------------|
|---------------|-----------------|-------------------|-----------------|
|-5-1-6-8-9--8--|-6-1---1-2-1---1-|-5-1---2-(2)-1-0-1-|-6-1---1-2-1---1-|


E E E E Q Q E E E E E E E E E E E E +E E E E E E E E E E E E
|---------------|-----------------|-------------------|-----------------|
|---------------|-----------------|-------------------|-----------------|
|---------------|-----------------|-------------------|-----------------|
|-5-1-6-8-9--8--|-6-1---1-2-1---1-|-5-1---2-(2)-1-0-1-|-6-1---1-2-1---1-|


E E E E Q Q E E E E E E E E E E E E +E E E E E E E E E E E E
|---------------|-----------------|-------------------|-----------------|
|---------------|-----------------|-------------------|-----------------|
|---------------|-----------------|-------------------|-----------------|
|-5-1-6-8-9--8--|-6-1---1-2-1---1-|-5-1---2-(2)-1-0-1-|-6-1---1-2-1---1-|


E E E E Q Q Q E E Q Q Q E E Q Q Q E E Q Q
|---------------|--------------|--------------|--------------|
|---------------|--------------|--------------|--------------|
|---------------|--------------|--------------|--------------|
|-5-1-6-8-9--8--|-6----6-2--1--|-6----6-2--1--|-6----6-2--1--|


Q E E Q Q Q E E Q Q Q E E Q Q Q E E Q Q
|--------------|--------------|--------------|--------------|
|--------------|--------------|--------------|--------------|
|--------------|--------------|--------------|--------------|
|-6----6-2--1--|-6----6-2--1--|-6----6-2--1--|-6----6-2--1--|


Q Q H E E Q Q Q E E E E Q E E E E Q Q Q
|------------|--------------|----------------|--------------|
|------------|--------------|----------------|--------------|
|------------|--------------|-------2--------|--------------|
|-1----------|-2---2--2-----|-4-6-1---4----4-|-2---2--2-----|


E E E E E E E E E E Q Q Q E E E E Q E E E E Q Q Q
|-----------------|--------------|----------------|--------------|
|-----------------|--------------|----------------|--------------|
|-------2---------|--------------|-------2--------|--------------|
|-4-6-1---4-4-1-4-|-2---2--2-----|-4-6-1---4----4-|-2---2--2-----|


E E E E E E Q E E E E E E E E E E E E +E E E E E E E E E E E E
|----------------|-----------------|-------------------|-----------------|
|----------------|-----------------|-------------------|-----------------|
|----------------|-----------------|-------------------|-----------------|
|-4---4---4---6--|-6-1---1-2-1---1-|-5-1---2-(2)-1-0-1-|-6-1---1-2-1---1-|


E E E E Q Q E E E E E E E E E E E E +E E E E E E E E E E E E
|---------------|-----------------|-------------------|-----------------|
|---------------|-----------------|-------------------|-----------------|
|---------------|-----------------|-------------------|-----------------|
|-5-1-6-8-9--8--|-6-1---1-2-1---1-|-5-1---2-(2)-1-0-1-|-6-1---1-2-1---1-|


E E E E Q Q E E E E E E E E E E E E +E E E E E E E E E E E E
|---------------|-----------------|-------------------|-----------------|
|---------------|-----------------|-------------------|-----------------|
|---------------|-----------------|-------------------|-----------------|
|-5-1-6-8-9--8--|-6-1---1-2-1---1-|-5-1---2-(2)-1-0-1-|-6-1---1-2-1---1-|


E E E E Q Q E E E E E E E E E E E E +E E E E E E E E E E E E
|---------------|-----------------|-------------------|-----------------|
|---------------|-----------------|-------------------|-----------------|
|---------------|-----------------|-------------------|-----------------|
|-5-1-6-8-9--8--|-6-1---1-2-1---1-|-5-1---2-(2)-1-0-1-|-6-1---1-2-1---1-|


E E E E Q Q W W W
|---------------|----------|----------|------|
|---------------|----------|----------|------|
|---------------|----------|----------|------|
|-5-1-6-8-9--8--|----------|----------|------|


W W W W
|----------|----------|----------|------|
|----------|----------|----------|------|
|----------|----------|----------|------|
|----------|----------|----------|------|


E E E E E E Q E E E E E E E E E E E E +E E E E E E E E E E E E
|----------------|-----------------|-------------------|-----------------|
|----------------|-----------------|-------------------|-----------------|
|----------------|-----------------|-------------------|-----------------|
|-4---4---4---6--|-6-1---1-2-1---1-|-5-1---2-(2)-1-0-1-|-6-1---1-2-1---1-|


E E E E Q Q E E E E E E E E E E E E +E E E E E E E E E E E E
|---------------|-----------------|-------------------|-----------------|
|---------------|-----------------|-------------------|-----------------|
|---------------|-----------------|-------------------|-----------------|
|-5-1-6-8-9--8--|-6-1---1-2-1---1-|-5-1---2-(2)-1-0-1-|-6-1---1-2-1---1-|


E E E E Q Q E E E E E E E E E E E E +E E E E E E E E E E E E
|---------------|-----------------|-------------------|-----------------|
|---------------|-----------------|-------------------|-----------------|
|---------------|-----------------|-------------------|-----------------|
|-5-1-6-8-9--8--|-6-1---1-2-1---1-|-5-1---2-(2)-1-0-1-|-6-1---1-2-1---1-|


E E E E Q Q E E E E E E E E E E E E +E E E E E E E E E E E E
|---------------|-----------------|-------------------|-----------------|
|---------------|-----------------|-------------------|-----------------|
|---------------|-----------------|-------------------|-----------------|
|-5-1-6-8-9--8--|-6-1---1-2-1---1-|-5-1---2-(2)-1-0-1-|-6-1---1-2-1---1-|


E E E E Q Q E E E E E E E E E E E E +E E E E E E E E E E E E
|---------------|-----------------|-------------------|-----------------|
|---------------|-----------------|-------------------|-----------------|
|---------------|-----------------|-------------------|-----------------|
|-5-1-6-8-9--8--|-6-1---1-2-1---1-|-5-1---2-(2)-1-0-1-|-6-1---1-2-1---1-|


E E E E Q Q E E E E E E E E E E E E +E E E E E E E E E E E E
|---------------|-----------------|-------------------|-----------------|
|---------------|-----------------|-------------------|-----------------|
|---------------|-----------------|-------------------|-----------------|
|-5-1-6-8-9--8--|-6-1---1-2-1---1-|-5-1---2-(2)-1-0-1-|-6-1---1-2-1---1-|


E E E E Q Q
|-----------------*|
|-----------------*|
|-----------------*|
|-5-1-6-8-9--8----*|


Duration Legend
---------------
W - whole; H - half; Q - quarter; E - 8th; S - 16th; T - 32nd; X - 64th; a - acciaccatura
+ - note tied to previous; . - note dotted; .. - note double dotted
Uncapitalized letters represent notes that are staccato (1/2 duration)
Irregular groupings are notated above the duration line
Duration letters will always appear directly above the note/fret number it represents the
duration for. Duration letters with no fret number below them represent rests. Multi-
bar rests are notated in the form Wxn, where n is the number of bars to rest for. Low
melody durations appear below the staff

Tablature Legend
----------------
h - hammer-on
p - pull-off
b - bend
pb - pre-bend
r - bend release (if no number after the r, then release immediately)
/ - slide into or out of (from/to "nowhere")
s - legato slide
S - shift slide
- natural harmonic
[n] - artificial harmonic
n(n) - tapped harmonic
~ - vibrato
tr - trill
T - tap
TP - trem. picking
PM - palm muting
n/ - tremolo bar dip; n = amount to dip
n - tremolo bar down
n/ - tremolo bar up
/n - tremolo bar inverted dip
= - hold bend; also acts as connecting device for hammers/pulls
<> - volume swell (louder/softer)
x - on rhythm slash represents muted slash
o - on rhythm slash represents single note slash

Misc Legend
-----------
| - bar
|| - double bar
||o - repeat start
o|| - repeat end
*| - double bar (ending)
: - bar (freetime)
$ - Segno
& - Coda

-----------------------------
|  , ,   |
|     http://akords.org     |
-----------------------------

 (: 0)
    :
  • The One Bass
  • Weve Got It Going On Bass 2
  • Everybody Bass 2
  • Larger Than Life Bass 2
  • The One
  •  
    , . '.

    ':*
    E-Mail:*
    :
    , : *
     
      

    BLIBL-