|  
 
:  
  : :  
      ?    

  |

akords.org » B » Backstreet Boys » Get Down

Backstreet Boys - Get Down 

-------------------------------------------------------------------------------
GET DOWN - Backstreet Boys
-------------------------------------------------------------------------------
Tabbed by: metallhead
Email: homesticky@gmail.com

Tuning: E A D G B E


Gtr I (E A D G B E) - 'Keyboard'
Gtr II (E A D G B E) - 'Keyboard'
Gtr III (E A D G B E) - 'Keyboard'
Gtr IV (E A D G B E) - 'Choir Aahs'
Gtr V (E A D G B E) - 'Piano'
Gtr VI (E A D G B E) - 'Voice'

Q=113
4/4
Gtr I
W W W W
|----------|-4---------------|-3-----------------|-4------------------------|
|----------|-4---------------|-2-----------------|-4------------------------|
|----------|-4---------------|-3-----------------|-4------------------------|
|----------|-----------------|-------------------|--------------------------|
|----------|-----------------|-------------------|--------------------------|
|----------|-----------------|-------------------|--------------------------|
|
| Gtr II
| W E E E E E E E E E E E E +E E E E E E +S S E E E +S S E
|----------|-----------------|-------------------|--------------------------|
|----------|-----------------|-------------------|--------------------------|
|----------|-----------------|-------------------|-1------------------------|
|----------|-6---------------|-5-1---2-(2)-1-0-1-|---1-(1)---1-2-1-(1)---1--|
|----------|---6---6-7-6---6-|-------------------|--------------------------|
|----------|-4-------0-------|-3-----0-(0)-------|-4-----------0------------|
|
| Gtr III
| W E E E E E E E E E E E E +E E E E E E E E E E E E
|----------|-4---------------|-3-----------------|-4------------------------|
|----------|---4---4-5-4---4-|---4---5-(5)-4-3-4-|---4-------4-5-4-------4--|
|----------|-----------------|-------------------|--------------------------|
|----------|-----------------|-------------------|--------------------------|
|----------|-----------------|-------------------|--------------------------|
|----------|-----------------|-------------------|--------------------------|


W W
|-3-------------|-4---------------|
|-2-------------|-4---------------|
|-3-------------|-4---------------|
|---------------|-----------------|
|---------------|-----------------|
|---------------|-----------------|
|
| E E E E Q Q E E E E E E E E
|---------------|-----------------|
|---------------|-----------------|
|-----1-3-4--3--|-----------------|
|-5-1-----------|-6---------------|
|-------1-2-----|---6---6-7-6---6-|
|-3---4------6--|-4-------0-------|
|
| E E E E Q Q E E E E E E E E
|-3---4-6-7--6--|-4---------------|
|---4-----------|---4---4-5-4---4-|
|---------------|-----------------|
|---------------|-----------------|
|---------------|-----------------|
|---------------|-----------------|


W W
|-3-----------------|-4-----------------------|
|-2-----------------|-4-----------------------|
|-3-----------------|-4-----------------------|
|-------------------|-------------------------|
|-------------------|-------------------------|
|-------------------|-------------------------|
|
| E E E E +E E E E E E +S S E E E +S S E
|-------------------|-------------------------|
|-------------------|-------------------------|
|-------------------|-1-----------------------|
|-5-1---2-(2)-1-0-1-|---1-(1)---1-2-1-(1)---1-|
|-------------------|-------------------------|
|-3-----0-(0)-------|-4-----------0-----------|
|
| E E E E +E E E E E E E E E E E E
|-3-----------------|-4-----------------------|
|---4---5-(5)-4-3-4-|---4-------4-5-4-------4-|
|-------------------|-------------------------|
|-------------------|-------------------------|
|-------------------|-------------------------|
|-------------------|-------------------------|


Gtrs I, V
W W
|-3-------------|-------------------------|
|-2-------------|-4-----------------------|
|-3-------------|-4-----------------------|
|---------------|-6-----------------------|
|---------------|-------------------------|
|---------------|-------------------------|
|
| Gtr VI
| E E E E Q Q E S S S S S S +E E E E
|---------------|-------------------------|
|---------------|---4---4---4-4-(4)-2-----|
|-----1-3-4--3--|---------------------4---|
|-5-1-----------|-----------------------6-|
|-------1-2-----|-------------------------|
|-3---4------6--|-------------------------|
|
| E E E E Q Q W
|-3---4-6-7--6--|-------------------------|
|---4-----------|-------------------------|
|---------------|-------------------------|
|---------------|-------------------------|
|---------------|-------------------------|
|---------------|-------------------------|


W H H
|----------------------|-----------------------|
|-4--------------------|-4---------5-----------|
|-4--------------------|-4---------4-----------|
|-4--------------------|-4---------6-----------|
|----------------------|-----------------------|
|----------------------|-----------------------|
|
| E. S +S S E +Q Q E E E S S E. S +E E
|----------------------|-----------2-----------|
|----2-(2)---2-(2)-----|-5-4-2--------4-(4)-2--|
|-4--------------------|-------4---------------|
|----------------------|-----------------------|
|----------------------|-----------------------|
|----------------------|-----------------------|
|
| W W
|----------------------|-----------------------|
|----------------------|-----------------------|
|----------------------|-----------------------|
|----------------------|-----------------------|
|----------------------|-----------------------|
|----------------------|-----------------------|


Q. E +H W W
|----------------------|-------------------------|-----------------------|
|--4----------2-(2)----|-4-----------------------|-4---------------------|
|--4----------3-(3)----|-4-----------------------|-4---------------------|
|--6----------4-(4)----|-6-----------------------|-4---------------------|
|----------------------|-------------------------|-----------------------|
|----------------------|-------------------------|-----------------------|
|
| +S S E +Q H E S S S S S S +E E E E E. S +S S E +Q Q
|----------------------|-------------------------|-----------------------|
|-(2)------------------|---4---4---4-4-(4)-2-----|----2-(2)---2-(2)------|
|-----4----------------|---------------------4---|-4---------------------|
|-------6-(6)----------|-----------------------6-|-----------------------|
|----------------------|-------------------------|-----------------------|
|----------------------|-------------------------|-----------------------|


H H Q. E +H W
|----------------------|--------------------|-0-------------------------|
|-4---------5----------|--4--------2-(2)----|-0-------------------------|
|-4---------4----------|--4--------3-(3)----|-1-------------------------|
|-4---------6----------|--6--------4-(4)----|---------------------------|
|----------------------|--------------------|---------------------------|
|----------------------|--------------------|---------------------------|
|
| E E E S S E. S +E E +E S S Q H E S S S S S S +E E E S S
|-----------2--4-(4)-2-|-(2)-4--------------|---------------------------|
|-5-4-2----------------|--------------------|---5---5---5-5-(5)-4-2-----|
|-------4--------------|--------------------|-----------------------4---|
|----------------------|--------------------|---------------------------|
|----------------------|--------------------|---------------------------|
|----------------------|--------------------|---------------------------|


Q. E +H W
|------------------|-------------------|
|-4------2-(2)-----|-0-----------------|
|-4------3-(3)-----|-1-----------------|
|-6------4-(4)-----|-2-----------------|
|------------------|-------------------|
|------------------|-------------------|
|
| E E E E +Q Q E E E E E E S S E
|------------------|-----------------2-|
|----2-4-----------|-----------2-------|
|-4------4-(4)-----|-----4---4---4-----|
|------------------|---6---6-----------|
|------------------|-------------------|
|------------------|-------------------|


Q. E +H W
|-------------------|-0--------------------------|
|--4------2-(2)-----|-0--------------------------|
|--4------3-(3)-----|-1--------------------------|
|--6------4-(4)-----|----------------------------|
|-------------------|----------------------------|
|-------------------|----------------------------|
|
| +E E Q +Q Q E S S S S S S +E E E S S
|-(2)---------------|----------------------------|
|-----4-2---(2)-----|---5---5---5-5-(5)-4-2------|
|-------------------|-----------------------4----|
|-------------------|----------------------------|
|-------------------|----------------------------|
|-------------------|----------------------------|


Gtr I
Q. E +H W W W
|---------------|----------|----------------|-4-----------------|
|-4----2-(2)----|-0--------|----------------|-4-----------------|
|-4----3-(3)----|-1--------|----------------|-4-----------------|
|-6----4-(4)----|-2--------|----------------|-------------------|
|---------------|----------|----------------|-------------------|
|---------------|----------|----------------|-------------------|
|
| Gtr IV
| W W H Q E S S Q E S S Q E E
|---------------|----------|----------------|-------------------|
|---------------|----------|------------4---|-4-----4---4-----4-|
|---------------|----------|------------4---|-4-----4---4-----4-|
|---------------|----------|----------------|-------------------|
|---------------|----------|----------------|-------------------|
|---------------|----------|----------------|-------------------|
|
| Gtr V Gtr II
| Q. E +H W Q Q Q Q E E E E E E E E
|---------------|----------|----------------|-------------------|
|-4----2-(2)----|-0--------|-2--2--2--4-----|-------------------|
|-4----3-(3)----|-1--------|-3--3--3--4-----|-------------------|
|-6----4-(4)----|-2--------|-4--4--4--6-----|-6-----------------|
|---------------|----------|----------------|---6---6---7-6---6-|
|---------------|----------|----------------|-4---------0-------|


W
|--3-----------------------|
|--2-----------------------|
|--3-----------------------|
|--------------------------|
|--------------------------|
|--------------------------|
|
| Gtr II
| E E E E +E E E E
|--------------------------|
|--------------------------|
|--------------------------|
|--5--1----2--(2)--1--0--1-|
|--------------------------|
|--3-------0--(0)----------|
|
| Gtr III
| E E E E +E E E E
|--------------------------|
|--------------------------|
|--------------------------|
|-17-----------------------|
|----18---19-(19)-18-17-18-|
|--------------------------|


W W
|--4----------------------------|--3------------------|
|--4----------------------------|--2------------------|
|--4----------------------------|--3------------------|
|-------------------------------|---------------------|
|-------------------------------|---------------------|
|-------------------------------|---------------------|
|
| E E +S S E E E +S S E E E E E Q Q
|-------------------------------|---------------------|
|-------------------------------|---------------------|
|--1----------------------------|--------1--3--4---3--|
|-----1-(1)----1--2--1-(1)----1-|--5--1---------------|
|-------------------------------|-----------1--2------|
|--4--------------0-------------|--3-----4---------6--|
|
| E E E E E E E E E E E E Q Q
|-------------------------------|---------------------|
|-------------------------------|---------------------|
|-------------------------------|---------------------|
|-18----------------------------|-17----18-20-21--20--|
|----18-------18-19-18-------18-|----18---------------|
|-------------------------------|---------------------|


W W
|--4--------------------|--3-----------------------|
|--4--------------------|--2-----------------------|
|--4--------------------|--3-----------------------|
|-----------------------|--------------------------|
|-----------------------|--------------------------|
|-----------------------|--------------------------|
|
| E E E E E E E E E E E E +E E E E
|-----------------------|--------------------------|
|-----------------------|--------------------------|
|-----------------------|--------------------------|
|--6--------------------|--5--1----2--(2)--1--0--1-|
|-----6----6--7--6----6-|--------------------------|
|--4----------0---------|--3-------0--(0)----------|
|
| E E E E E E E E E E E E +E E E E
|-----------------------|--------------------------|
|-21--------------------|--------------------------|
|-----------------------|--------------------------|
|-18--------------------|-17-----------------------|
|----18---18-19-18---18-|----18---19-(19)-18-17-18-|
|-----------------------|--------------------------|


W W
|--4----------------------------|--3------------------|
|--4----------------------------|--2------------------|
|--4----------------------------|--3------------------|
|-------------------------------|---------------------|
|-------------------------------|---------------------|
|-------------------------------|---------------------|
|
| E E +S S E E E +S S E E E E E Q Q
|-------------------------------|---------------------|
|-------------------------------|---------------------|
|--1----------------------------|--------1--3--4---3--|
|-----1-(1)----1--2--1-(1)----1-|--5--1---------------|
|-------------------------------|-----------1--2------|
|--4--------------0-------------|--3-----4---------6--|
|
| E E E E E E E E E E E E Q Q
|-------------------------------|---------------------|
|-------------------------------|---------------------|
|-------------------------------|---------------------|
|-18----------------------------|-17----18-20-21--20--|
|----18-------18-19-18-------18-|----18---------------|
|-------------------------------|---------------------|


W W
|--4--------------------|--3-----------------------|
|--4--------------------|--2-----------------------|
|--4--------------------|--3-----------------------|
|-----------------------|--------------------------|
|-----------------------|--------------------------|
|-----------------------|--------------------------|
|
| E E E E E E E E E E E E +E E E E
|-----------------------|--------------------------|
|-----------------------|--------------------------|
|-----------------------|--------------------------|
|--6--------------------|--5--1----2--(2)--1--0--1-|
|-----6----6--7--6----6-|--------------------------|
|--4----------0---------|--3-------0--(0)----------|
|
| E E E E E E E E E E E E +E E E E
|-----------------------|--------------------------|
|-21--------------------|--------------------------|
|-----------------------|--------------------------|
|-18--------------------|-17-----------------------|
|----18---18-19-18---18-|----18---19-(19)-18-17-18-|
|-----------------------|--------------------------|


W W W
|--4----------------------------|--3------------------|--4--------------------|
|--4----------------------------|--2------------------|--4--------------------|
|--4----------------------------|--3------------------|--4--------------------|
|-------------------------------|---------------------|-----------------------|
|-------------------------------|---------------------|-----------------------|
|-------------------------------|---------------------|-----------------------|
|
| E E +S S E E E +S S E E E E E Q Q E E E E E E E E
|-------------------------------|---------------------|-----------------------|
|-------------------------------|---------------------|-----------------------|
|--1----------------------------|--------1--3--4---3--|-----------------------|
|-----1-(1)----1--2--1-(1)----1-|--5--1---------------|--6--------------------|
|-------------------------------|-----------1--2------|-----6----6--7--6----6-|
|--4--------------0-------------|--3-----4---------6--|--4----------0---------|
|
| E E E E E E E E E E E E Q Q E E E E E E E E
|-------------------------------|---------------------|-----------------------|
|-------------------------------|---------------------|-21--------------------|
|-------------------------------|---------------------|-----------------------|
|-18----------------------------|-17----18-20-21--20--|-18--------------------|
|----18-------18-19-18-------18-|----18---------------|----18---18-19-18---18-|
|-------------------------------|---------------------|-----------------------|


W W
|--3-----------------------|--4----------------------------|
|--2-----------------------|--4----------------------------|
|--3-----------------------|--4----------------------------|
|--------------------------|-------------------------------|
|--------------------------|-------------------------------|
|--------------------------|-------------------------------|
|
| E E E E +E E E E E E +S S E E E +S S E
|--------------------------|-------------------------------|
|--------------------------|-------------------------------|
|--------------------------|--1----------------------------|
|--5--1----2--(2)--1--0--1-|-----1-(1)----1--2--1-(1)----1-|
|--------------------------|-------------------------------|
|--3-------0--(0)----------|--4--------------0-------------|
|
| E E E E +E E E E E E E E E E E E
|--------------------------|-------------------------------|
|--------------------------|-------------------------------|
|--------------------------|-------------------------------|
|-17-----------------------|-18----------------------------|
|----18---19-(19)-18-17-18-|----18-------18-19-18-------18-|
|--------------------------|-------------------------------|


W W
|--3------------------|--------------|
|--2------------------|--------------|
|--3------------------|--------------|
|---------------------|--------------|
|---------------------|--------------|
|---------------------|--------------|
|
| E E E E Q Q Q E E Q Q
|---------------------|--------------|
|---------------------|--------------|
|--------1--3--4---3--|--------------|
|--5--1---------------|-6----6-2--1--|
|-----------1--2------|--------------|
|--3-----4---------6--|-4----4-0-----|
|
| E E E E Q Q Q E E Q Q
|---------------------|--------------|
|---------------------|--------------|
|---------------------|--------------|
|-17----18-20-21--20--|--------------|
|----18---------------|--------------|
|---------------------|-4----4-0-----|


Gtr II
Q E E Q Q Q E E Q Q Q E E Q Q Q E E Q Q
|--------------|--------------|--------------|--------------|
|--------------|--------------|--------------|--------------|
|-1----1-------|-1----1-------|-1----1-------|-1----1-------|
|--------2--1--|--------2--1--|--------2--1--|--------2--1--|
|--------------|--------------|--------------|--------------|
|-4----4-0-----|-4----4-0-----|-4----4-0-----|-4----4-0-----|
|
| Gtr III
| Q E E Q Q Q E E Q Q Q E E Q Q Q E E Q Q
|--------------|--------------|--------------|--------------|
|--------------|--------------|--------------|--------------|
|--------------|--------------|--------------|--------------|
|--------------|--------------|--------------|--------------|
|--------------|--------------|--------------|--------------|
|-4----4-0-----|-4----4-0-----|-4----4-0-----|-4----4-0-----|


Gtr I
Q E E Q Q Q E E Q Q Q Q H W
|--------------|--------------|------------|-0-------------------------|
|--------------|--------------|------------|-0-------------------------|
|-1----1-------|-1----1-------|------------|-1-------------------------|
|--------2--1--|--------2--1--|-1----------|---------------------------|
|--------------|--------------|------------|---------------------------|
|-4----4-0-----|-4----4-0-----|------------|---------------------------|
|
| Gtr V
| Q E E Q Q Q E E Q Q W W
|--------------|--------------|------------|---------------------------|
|--------------|--------------|------------|-5-------------------------|
|--------------|--------------|------------|-4-------------------------|
|--------------|--------------|------------|-6-------------------------|
|--------------|--------------|------------|---------------------------|
|-4----4-0-----|-4----4-0-----|------------|---------------------------|
|
| Gtr VI
| W W W E S S S S S S +E E E S S
|--------------|--------------|------------|---------------------------|
|--------------|--------------|------------|---5---5---5-5-(5)-4-2-----|
|--------------|--------------|------------|-----------------------4---|
|--------------|--------------|------------|---------------------------|
|--------------|--------------|------------|---------------------------|
|--------------|--------------|------------|---------------------------|


Gtrs I, V
Q. E +H W
|------------------|-------------------|
|-4------2-(2)-----|-0-----------------|
|-4------3-(3)-----|-1-----------------|
|-6------4-(4)-----|-2-----------------|
|------------------|-------------------|
|------------------|-------------------|
|
| Gtr VI
| E E E E +Q Q E E E E E E S S E
|------------------|-----------------2-|
|----2-4-----------|-----------2-------|
|-4------4-(4)-----|-----4---4---4-----|
|------------------|---6---6-----------|
|------------------|-------------------|
|------------------|-------------------|


Q. E +H W
|-------------------|-0--------------------------|
|--4------2-(2)-----|-0--------------------------|
|--4------3-(3)-----|-1--------------------------|
|--6------4-(4)-----|----------------------------|
|-------------------|----------------------------|
|-------------------|----------------------------|
|
| +E E Q +Q Q E S S S S S S +E E E S S
|-(2)---------------|----------------------------|
|-----4-2---(2)-----|---5---5---5-5-(5)-4-2------|
|-------------------|-----------------------4----|
|-------------------|----------------------------|
|-------------------|----------------------------|
|-------------------|----------------------------|


Gtr I
Q. E +H W W W
|---------------|----------|----------------|-4-----------------|
|-4----2-(2)----|-0--------|----------------|-4-----------------|
|-4----3-(3)----|-1--------|----------------|-4-----------------|
|-6----4-(4)----|-2--------|----------------|-------------------|
|---------------|----------|----------------|-------------------|
|---------------|----------|----------------|-------------------|
|
| Gtr IV
| W W H Q E S S Q E S S Q E E
|---------------|----------|----------------|-------------------|
|---------------|----------|------------4---|-4-----4---4-----4-|
|---------------|----------|------------4---|-4-----4---4-----4-|
|---------------|----------|----------------|-------------------|
|---------------|----------|----------------|-------------------|
|---------------|----------|----------------|-------------------|
|
| Gtr V Gtr II
| Q. E +H W Q Q Q Q E E E E E E E E
|---------------|----------|----------------|-------------------|
|-4----2-(2)----|-0--------|-2--2--2--4-----|-------------------|
|-4----3-(3)----|-1--------|-3--3--3--4-----|-1-----------------|
|-6----4-(4)----|-2--------|-4--4--4--6-----|---1---1---2-1---1-|
|---------------|----------|----------------|-------------------|
|---------------|----------|----------------|-4---------0-------|


W
|--3-----------------------|
|--2-----------------------|
|--3-----------------------|
|--------------------------|
|--------------------------|
|--------------------------|
|
| Gtr II
| E E E E +E E E E
|--------------------------|
|--------------------------|
|--------------------------|
|--5--1----2--(2)--1--0--1-|
|--------------------------|
|--3-------0--(0)----------|
|
| Gtr III
| E E E E +E E E E
|--------------------------|
|--------------------------|
|--------------------------|
|-17-----------------------|
|----18---19-(19)-18-17-18-|
|--------------------------|


W W
|--4----------------------------|--3------------------|
|--4----------------------------|--2------------------|
|--4----------------------------|--3------------------|
|-------------------------------|---------------------|
|-------------------------------|---------------------|
|-------------------------------|---------------------|
|
| E E +S S E E E +S S E E E E E Q Q
|-------------------------------|---------------------|
|-------------------------------|---------------------|
|--1----------------------------|--------1--3--4---3--|
|-----1-(1)----1--2--1-(1)----1-|--5--1---------------|
|-------------------------------|-----------1--2------|
|--4--------------0-------------|--3-----4---------6--|
|
| E E E E E E E E E E E E Q Q
|-------------------------------|---------------------|
|-------------------------------|---------------------|
|-------------------------------|---------------------|
|-18----------------------------|-17----18-20-21--20--|
|----18-------18-19-18-------18-|----18---------------|
|-------------------------------|---------------------|


W W
|--4--------------------|--3-----------------------|
|--4--------------------|--2-----------------------|
|--4--------------------|--3-----------------------|
|-----------------------|--------------------------|
|-----------------------|--------------------------|
|-----------------------|--------------------------|
|
| E E E E E E E E E E E E +E E E E
|-----------------------|--------------------------|
|-----------------------|--------------------------|
|-----------------------|--------------------------|
|--6--------------------|--5--1----2--(2)--1--0--1-|
|-----6----6--7--6----6-|--------------------------|
|--4----------0---------|--3-------0--(0)----------|
|
| E E E E E E E E E E E E +E E E E
|-----------------------|--------------------------|
|-21--------------------|--------------------------|
|-----------------------|--------------------------|
|-18--------------------|-17-----------------------|
|----18---18-19-18---18-|----18---19-(19)-18-17-18-|
|-----------------------|--------------------------|


W W
|--4----------------------------|--3------------------|
|--4----------------------------|--2------------------|
|--4----------------------------|--3------------------|
|-------------------------------|---------------------|
|-------------------------------|---------------------|
|-------------------------------|---------------------|
|
| E E +S S E E E +S S E E E E E Q Q
|-------------------------------|---------------------|
|-------------------------------|---------------------|
|--1----------------------------|--------1--3--4---3--|
|-----1-(1)----1--2--1-(1)----1-|--5--1---------------|
|-------------------------------|-----------1--2------|
|--4--------------0-------------|--3-----4---------6--|
|
| E E E E E E E E E E E E Q Q
|-------------------------------|---------------------|
|-------------------------------|---------------------|
|-------------------------------|---------------------|
|-18----------------------------|-17----18-20-21--20--|
|----18-------18-19-18-------18-|----18---------------|
|-------------------------------|---------------------|


W W
|--4--------------------|--3-----------------------|
|--4--------------------|--2-----------------------|
|--4--------------------|--3-----------------------|
|-----------------------|--------------------------|
|-----------------------|--------------------------|
|-----------------------|--------------------------|
|
| E E E E E E E E E E E E +E E E E
|-----------------------|--------------------------|
|-----------------------|--------------------------|
|-----------------------|--------------------------|
|--6--------------------|--5--1----2--(2)--1--0--1-|
|-----6----6--7--6----6-|--------------------------|
|--4----------0---------|--3-------0--(0)----------|
|
| E E E E E E E E E E E E +E E E E
|-----------------------|--------------------------|
|-21--------------------|--------------------------|
|-----------------------|--------------------------|
|-18--------------------|-17-----------------------|
|----18---18-19-18---18-|----18---19-(19)-18-17-18-|
|-----------------------|--------------------------|


W W W
|--4----------------------------|--3------------------|--4--------------------|
|--4----------------------------|--2------------------|--4--------------------|
|--4----------------------------|--3------------------|--4--------------------|
|-------------------------------|---------------------|-----------------------|
|-------------------------------|---------------------|-----------------------|
|-------------------------------|---------------------|-----------------------|
|
| E E +S S E E E +S S E E E E E Q Q E E E E E E E E
|-------------------------------|---------------------|-----------------------|
|-------------------------------|---------------------|-----------------------|
|--1----------------------------|--------1--3--4---3--|-----------------------|
|-----1-(1)----1--2--1-(1)----1-|--5--1---------------|--6--------------------|
|-------------------------------|-----------1--2------|-----6----6--7--6----6-|
|--4--------------0-------------|--3-----4---------6--|--4----------0---------|
|
| E E E E E E E E E E E E Q Q E E E E E E E E
|-------------------------------|---------------------|-----------------------|
|-------------------------------|---------------------|-21--------------------|
|-------------------------------|---------------------|-----------------------|
|-18----------------------------|-17----18-20-21--20--|-18--------------------|
|----18-------18-19-18-------18-|----18---------------|----18---18-19-18---18-|
|-------------------------------|---------------------|-----------------------|


W W
|--3-----------------------|--4----------------------------|
|--2-----------------------|--4----------------------------|
|--3-----------------------|--4----------------------------|
|--------------------------|-------------------------------|
|--------------------------|-------------------------------|
|--------------------------|-------------------------------|
|
| E E E E +E E E E E E +S S E E E +S S E
|--------------------------|-------------------------------|
|--------------------------|-------------------------------|
|--------------------------|--1----------------------------|
|--5--1----2--(2)--1--0--1-|-----1-(1)----1--2--1-(1)----1-|
|--------------------------|-------------------------------|
|--3-------0--(0)----------|--4--------------0-------------|
|
| E E E E +E E E E E E E E E E E E
|--------------------------|-------------------------------|
|--------------------------|-------------------------------|
|--------------------------|-------------------------------|
|-17-----------------------|-18----------------------------|
|----18---19-(19)-18-17-18-|----18-------18-19-18-------18-|
|--------------------------|-------------------------------|


W W
|--3------------------|-0-------------------------|
|--2------------------|-0-------------------------|
|--3------------------|-1-------------------------|
|---------------------|---------------------------|
|---------------------|---------------------------|
|---------------------|---------------------------|
|
| Gtr VI
| E E E E Q Q E S S S S S S +E E E S S
|---------------------|---------------------------|
|---------------------|---5---5---5-5-(5)-4-2-----|
|--------1--3--4---3--|-----------------------4---|
|--5--1---------------|---------------------------|
|-----------1--2------|---------------------------|
|--3-----4---------6--|---------------------------|
|
| E E E E Q Q W
|---------------------|---------------------------|
|---------------------|---------------------------|
|---------------------|---------------------------|
|-17----18-20-21--20--|---------------------------|
|----18---------------|---------------------------|
|---------------------|---------------------------|


Gtrs I, IV, V
Q. E +H W
|------------------|-------------------|
|-4------2-(2)-----|-0-----------------|
|-4------3-(3)-----|-1-----------------|
|-6------4-(4)-----|-2-----------------|
|------------------|-------------------|
|------------------|-------------------|
|
| E E E E +Q Q E E E E E E S S E
|------------------|-----------------2-|
|----2-4-2-(2)-----|-----0---0-2-------|
|-4----------------|---1---1-----4-----|
|------------------|-------------------|
|------------------|-------------------|
|------------------|-------------------|


Q. E +H W
|-------------------|-0--------------------------|
|--4------2-(2)-----|-0--------------------------|
|--4------3-(3)-----|-1--------------------------|
|--6------4-(4)-----|----------------------------|
|-------------------|----------------------------|
|-------------------|----------------------------|
|
| +E E Q +Q Q E S S S S S S +E E E S S
|-(2)---------------|----------------------------|
|-----4-2---(2)-----|---5---5---5-5-(5)-4-2------|
|-------------------|-----------------------4----|
|-------------------|----------------------------|
|-------------------|----------------------------|
|-------------------|----------------------------|


Gtr I
Q. E +H W W W
|---------------|----------|--------------|-4---------------|
|-4----2-(2)----|-0--------|--------------|-4---------------|
|-4----3-(3)----|-1--------|--------------|-4---------------|
|-6----4-(4)----|-2--------|--------------|-----------------|
|---------------|----------|--------------|-----------------|
|---------------|----------|--------------|-----------------|
|
| Gtr IV
| Q. E +H W H Q E E E E E E Q E E
|---------------|----------|--------------|-4---------------|
|-4----2-(2)----|-0--------|------------4-|---4-2-4-2-----4-|
|-4----3-(3)----|-1--------|--------------|-----------------|
|-6----4-(4)----|-2--------|--------------|-----------------|
|---------------|----------|--------------|-----------------|
|---------------|----------|--------------|-----------------|
|
| Gtr V Gtr II
| Q. E +H W Q Q Q Q E E E E E E E E
|---------------|----------|--------------|-----------------|
|-4----2-(2)----|-0--------|-2--2--2--4---|-----------------|
|-4----3-(3)----|-1--------|-3--3--3--4---|-----------------|
|-6----4-(4)----|-2--------|-4--4--4--6---|-6---------------|
|---------------|----------|--------------|---6---6-7-6---6-|
|---------------|----------|--------------|-4-------0-------|


W W
|--3-----------------------|--4----------------------------|
|--2-----------------------|--4----------------------------|
|--3-----------------------|--4----------------------------|
|--------------------------|-------------------------------|
|--------------------------|-------------------------------|
|--------------------------|-------------------------------|
|
| Gtr II
| E E E E +E E E E E E +S S E E E +S S E
|--------------------------|-------------------------------|
|--------------------------|-------------------------------|
|--------------------------|--1----------------------------|
|--5--1----2--(2)--1--0--1-|-----1-(1)----1--2--1-(1)----1-|
|--------------------------|-------------------------------|
|--3-------0--(0)----------|--4--------------0-------------|
|
| Gtr III
| E E E E +E E E E E E E E E E E E
|--------------------------|-------------------------------|
|--------------------------|-------------------------------|
|--------------------------|-------------------------------|
|-17-----------------------|-18----------------------------|
|----18---19-(19)-18-17-18-|----18-------18-19-18-------18-|
|--------------------------|-------------------------------|


W W
|--3------------------|--4--------------------|
|--2------------------|--4--------------------|
|--3------------------|--4--------------------|
|---------------------|-----------------------|
|---------------------|-----------------------|
|---------------------|-----------------------|
|
| E E E E Q Q E E E E E E E E
|---------------------|-----------------------|
|---------------------|-----------------------|
|--------1--3--4---3--|-----------------------|
|--5--1---------------|--6--------------------|
|-----------1--2------|-----6----6--7--6----6-|
|--3-----4---------6--|--4----------0---------|
|
| E E E E Q Q E E E E E E E E
|---------------------|-----------------------|
|---------------------|-21--------------------|
|---------------------|-----------------------|
|-17----18-20-21--20--|-18--------------------|
|----18---------------|----18---18-19-18---18-|
|---------------------|-----------------------|


W
|--3-----------------------|
|--2-----------------------|
|--3-----------------------|
|--------------------------|
|--------------------------|
|--------------------------|
|
| E E E E +E E E E
|--------------------------|
|--------------------------|
|--------------------------|
|--5--1----2--(2)--1--0--1-|
|--------------------------|
|--3-------0--(0)----------|
|
| E E E E +E E E E
|--------------------------|
|--------------------------|
|--------------------------|
|-17-----------------------|
|----18---19-(19)-18-17-18-|
|--------------------------|


W W
|--4----------------------------|--3------------------|
|--4----------------------------|--2------------------|
|--4----------------------------|--3------------------|
|-------------------------------|---------------------|
|-------------------------------|---------------------|
|-------------------------------|---------------------|
|
| E E +S S E E E +S S E E E E E Q Q
|-------------------------------|---------------------|
|-------------------------------|---------------------|
|--1----------------------------|--------1--3--4---3--|
|-----1-(1)----1--2--1-(1)----1-|--5--1---------------|
|-------------------------------|-----------1--2------|
|--4--------------0-------------|--3-----4---------6--|
|
| E E E E E E E E E E E E Q Q
|-------------------------------|---------------------|
|-------------------------------|---------------------|
|-------------------------------|---------------------|
|-18----------------------------|-17----18-20-21--20--|
|----18-------18-19-18-------18-|----18---------------|
|-------------------------------|---------------------|


W W
|--4--------------------|--3-----------------------|
|--4--------------------|--2-----------------------|
|--4--------------------|--3-----------------------|
|-----------------------|--------------------------|
|-----------------------|--------------------------|
|-----------------------|--------------------------|
|
| E E E E E E E E E E E E +E E E E
|-----------------------|--------------------------|
|-----------------------|--------------------------|
|-----------------------|--------------------------|
|--6--------------------|--5--1----2--(2)--1--0--1-|
|-----6----6--7--6----6-|--------------------------|
|--4----------0---------|--3-------0--(0)----------|
|
| E E E E E E E E E E E E +E E E E
|-----------------------|--------------------------|
|-21--------------------|--------------------------|
|-----------------------|--------------------------|
|-18--------------------|-17-----------------------|
|----18---18-19-18---18-|----18---19-(19)-18-17-18-|
|-----------------------|--------------------------|


W W W
|--4----------------------------|--3------------------|--4--------------------|
|--4----------------------------|--2------------------|--4--------------------|
|--4----------------------------|--3------------------|--4--------------------|
|-------------------------------|---------------------|-----------------------|
|-------------------------------|---------------------|-----------------------|
|-------------------------------|---------------------|-----------------------|
|
| E E +S S E E E +S S E E E E E Q Q E E E E E E E E
|-------------------------------|---------------------|-----------------------|
|-------------------------------|---------------------|-----------------------|
|--1----------------------------|--------1--3--4---3--|-----------------------|
|-----1-(1)----1--2--1-(1)----1-|--5--1---------------|--6--------------------|
|-------------------------------|-----------1--2------|-----6----6--7--6----6-|
|--4--------------0-------------|--3-----4---------6--|--4----------0---------|
|
| E E E E E E E E E E E E Q Q E E E E E E E E
|-------------------------------|---------------------|-----------------------|
|-------------------------------|---------------------|-21--------------------|
|-------------------------------|---------------------|-----------------------|
|-18----------------------------|-17----18-20-21--20--|-18--------------------|
|----18-------18-19-18-------18-|----18---------------|----18---18-19-18---18-|
|-------------------------------|---------------------|-----------------------|


W
|--3-----------------------|
|--2-----------------------|
|--3-----------------------|
|--------------------------|
|--------------------------|
|--------------------------|
|
| E E E E +E E E E
|--------------------------|
|--------------------------|
|--------------------------|
|--5--1----2--(2)--1--0--1-|
|--------------------------|
|--3-------0--(0)----------|
|
| E E E E +E E E E
|--------------------------|
|--------------------------|
|--------------------------|
|-17-----------------------|
|----18---19-(19)-18-17-18-|
|--------------------------|


W W
|--4----------------------------|--3------------------|
|--4----------------------------|--2------------------|
|--4----------------------------|--3------------------|
|-------------------------------|---------------------|
|-------------------------------|---------------------|
|-------------------------------|---------------------|
|
| E E +S S E E E +S S E E E E E Q Q
|-------------------------------|---------------------|
|-------------------------------|---------------------|
|--1----------------------------|--------1--3--4---3--|
|-----1-(1)----1--2--1-(1)----1-|--5--1---------------|
|-------------------------------|-----------1--2------|
|--4--------------0-------------|--3-----4---------6--|
|
| E E E E E E E E E E E E Q Q
|-------------------------------|---------------------|
|-------------------------------|---------------------|
|-------------------------------|---------------------|
|-18----------------------------|-17----18-20-21--20--|
|----18-------18-19-18-------18-|----18---------------|
|-------------------------------|---------------------|


W W
|--4--------------------|--3-----------------------|
|--4--------------------|--2-----------------------|
|--4--------------------|--3-----------------------|
|-----------------------|--------------------------|
|-----------------------|--------------------------|
|-----------------------|--------------------------|
|
| E E E E E E E E E E E E +E E E E
|-----------------------|--------------------------|
|-----------------------|--------------------------|
|-----------------------|--------------------------|
|--6--------------------|--5--1----2--(2)--1--0--1-|
|-----6----6--7--6----6-|--------------------------|
|--4----------0---------|--3-------0--(0)----------|
|
| E E E E E E E E E E E E +E E E E
|-----------------------|--------------------------|
|-21--------------------|--------------------------|
|-----------------------|--------------------------|
|-18--------------------|-17-----------------------|
|----18---18-19-18---18-|----18---19-(19)-18-17-18-|
|-----------------------|--------------------------|


W
|--4----------------------------|
|--4----------------------------|
|--4----------------------------|
|-------------------------------|
|-------------------------------|
|-------------------------------|
|
| E E +S S E E E +S S E
|-------------------------------|
|-------------------------------|
|--1----------------------------|
|-----1-(1)----1--2--1-(1)----1-|
|-------------------------------|
|--4--------------0-------------|
|
| E E E E E E E E
|-------------------------------|
|-------------------------------|
|-------------------------------|
|-18----------------------------|
|----18-------18-19-18-------18-|
|-------------------------------|


W W W
|--3------------------|--4--------------------|--3-----------------------|
|--2------------------|--4--------------------|--2-----------------------|
|--3------------------|--4--------------------|--3-----------------------|
|---------------------|-----------------------|--------------------------|
|---------------------|-----------------------|--------------------------|
|---------------------|-----------------------|--------------------------|
|
| E E E E Q Q E E E E E E E E E E E E +E E E E
|---------------------|-----------------------|--------------------------|
|---------------------|-----------------------|--------------------------|
|--------1--3--4---3--|-----------------------|--------------------------|
|--5--1---------------|--6--------------------|--5--1----2--(2)--1--0--1-|
|-----------1--2------|-----6----6--7--6----6-|--------------------------|
|--3-----4---------6--|--4----------0---------|--3-------0--(0)----------|
|
| E E E E Q Q E E E E E E E E E E E E +E E E E
|---------------------|-----------------------|--------------------------|
|---------------------|-21--------------------|--------------------------|
|---------------------|-----------------------|--------------------------|
|-17----18-20-21--20--|-18--------------------|-17-----------------------|
|----18---------------|----18---18-19-18---18-|----18---19-(19)-18-17-18-|
|---------------------|-----------------------|--------------------------|


W W W W
|--4----------------------------|--3------------------|----------|------*|
|--4----------------------------|--2------------------|----------|------*|
|--4----------------------------|--3------------------|----------|------*|
|-------------------------------|---------------------|----------|------*|
|-------------------------------|---------------------|----------|------*|
|-------------------------------|---------------------|----------|------*|
|
| E E +S S E E E +S S E E E E E Q Q W W
|-------------------------------|---------------------|----------|------*|
|-------------------------------|---------------------|----------|------*|
|--1----------------------------|--------1--3--4---3--|----------|------*|
|-----1-(1)----1--2--1-(1)----1-|--5--1---------------|----------|------*|
|-------------------------------|-----------1--2------|----------|------*|
|--4--------------0-------------|--3-----4---------6--|----------|------*|
|
| E E E E E E E E E E E E Q Q W W
|-------------------------------|---------------------|----------|------*|
|-------------------------------|---------------------|----------|------*|
|-------------------------------|---------------------|----------|------*|
|-18----------------------------|-17----18-20-21--20--|----------|------*|
|----18-------18-19-18-------18-|----18---------------|----------|------*|
|-------------------------------|---------------------|----------|------*|


Duration Legend
---------------
W - whole; H - half; Q - quarter; E - 8th; S - 16th; T - 32nd; X - 64th; a - acciaccatura
+ - note tied to previous; . - note dotted; .. - note double dotted
Uncapitalized letters represent notes that are staccato (1/2 duration)
Irregular groupings are notated above the duration line
Duration letters will always appear directly above the note/fret number it represents the
duration for. Duration letters with no fret number below them represent rests. Multi-
bar rests are notated in the form Wxn, where n is the number of bars to rest for. Low
melody durations appear below the staff

Tablature Legend
----------------
h - hammer-on
p - pull-off
b - bend
pb - pre-bend
r - bend release (if no number after the r, then release immediately)
/ - slide into or out of (from/to "nowhere")
s - legato slide
S - shift slide
- natural harmonic
[n] - artificial harmonic
n(n) - tapped harmonic
~ - vibrato
tr - trill
T - tap
TP - trem. picking
PM - palm muting
n/ - tremolo bar dip; n = amount to dip
n - tremolo bar down
n/ - tremolo bar up
/n - tremolo bar inverted dip
= - hold bend; also acts as connecting device for hammers/pulls
<> - volume swell (louder/softer)
x - on rhythm slash represents muted slash
o - on rhythm slash represents single note slash

Misc Legend
-----------
| - bar
|| - double bar
||o - repeat start
o|| - repeat end
*| - double bar (ending)
: - bar (freetime)
$ - Segno
& - Coda

-----------------------------
|  , ,   |
|     http://akords.org     |
-----------------------------

 (: 0)
    :
  • Larger Than Life 5
  • Everybody Bass 2
  • The One
  • Drowning
  • The One Bass
  •  
    , . '.

    ':*
    E-Mail:*
    :
    , : *
     
      

    BLIBL-