|  
 
:  
  : :  
      ?    

  |

akords.org » B » Backstreet Boys » Everybody Bass 2

Backstreet Boys - Everybody Bass 2 

-------------------------------------------------------------------------------
EVERYBODY - Backstreet Boys
-------------------------------------------------------------------------------
Tabbed by: metallhead
Email: homesticky@gmail.com

Tuning: E A D G


Gtr I (E A D G) - 'Bass'
Gtr II (E A D G) - 'Bass'

Q=107
4/4
Gtr I
W W W W
|----------|----------|----------|------|
|----------|----------|----------|------|
|----------|----------|----------|------|
|----------|----------|----------|------|


Gtrs I, II
W W H H W
|----------|----------|-----------|------|
|----------|----------|-----------|------|
|----------|----------|-1----1----|-1----|
|----------|----------|-----------|------|


Q Q H Q E E E E E E E E E E Q Q Q E E E E E E
|------------|----------------|---------------|----------------|
|------------|----------------|---------------|----------------|
|-1----------|-1--1-0---------|---------------|-1--1-0---------|
|------------|--------4-3-2---|-2---2-4-1-----|--------4-3-2---|


E E E E Q Q W E E E E E E Q Q E E E E E E
|---------------|----------|----------------|----------------|
|---------------|----------|----------------|----------------|
|---------------|----------|----------------|-1--1-0---------|
|-2---2-4-1-----|----------|-2---2-4-1------|--------4-3-2---|


E E E E E E Q Q E E E E E E E E E E E E Q Q E E E E E E
|----------------|----------------|----------------|----------------|
|----------------|----------------|----------------|----------------|
|----------------|-1--1-0---------|----------------|-1--1-0---------|
|-2---2-4-1------|--------4-3-2---|-2---2-4-1------|--------4-3-2---|


E E E E E E Q Q E E E E E E E E E E E E Q Q E E E E E E
|----------------|----------------|----------------|----------------|
|----------------|----------------|----------------|----------------|
|----------------|-1--1-0---------|----------------|-1--1-0---------|
|-2---2-4-1------|--------4-3-2---|-2---2-4-1------|--------4-3-2---|


E E E E E E Q Q E E E E E E E E E E E E Q Q E E E E Q
|----------------|----------------|----------------|---------------|
|----------------|----------------|----------------|---------------|
|----------------|-1--1-0---------|----------------|---------------|
|-2---2-4-1------|--------4-3-2---|-2---2-4-1------|-2--2-1-0------|


E E E E E E Q Q E E E E E E E E E E Q Q Q E E E E E E
|----------------|----------------|---------------|----------------|
|----------------|----------------|---------------|----------------|
|----------------|----------------|---------------|-1--1-0---------|
|-2---2-3-4------|-6--6-5-4-3-2---|-2---2-4-1-----|--------4-3-2---|


E E E E Q Q Q E E E E E E E E E E Q Q Q E E E E E E
|---------------|----------------|---------------|----------------|
|---------------|----------------|---------------|----------------|
|---------------|-1--1-0---------|---------------|-1--1-0---------|
|-2---2-4-1-----|--------4-3-2---|-2---2-4-1-----|--------4-3-2---|


E E E E Q Q Q E E E E E E E E E E Q Q Q E E E E E E
|---------------|----------------|---------------|----------------|
|---------------|----------------|---------------|----------------|
|---------------|-1--1-0---------|---------------|-1--1-0---------|
|-2---2-4-1-----|--------4-3-2---|-2---2-4-1-----|--------4-3-2---|


E E E E Q Q W W W
|---------------|----------|----------|------|
|---------------|----------|----------|------|
|---------------|----------|----------|------|
|-2---2-4-1-----|----------|----------|------|


Gtr I
W W W W
|----------|----------|----------|------|
|----------|----------|----------|------|
|----------|----------|----------|------|
|----------|----------|----------|------|


Gtrs I, II
W Q E E E E E E E E E E E E Q Q E E E E E E
|----------|----------------|----------------|----------------|
|----------|----------------|----------------|----------------|
|----------|-1--1-0---------|----------------|-1--1-0---------|
|----------|--------4-3-2---|-2---2-4-1------|--------4-3-2---|


E E E E E E Q Q E E E E E E E E E E E E Q Q E E E E Q
|----------------|----------------|----------------|---------------|
|----------------|----------------|----------------|---------------|
|----------------|-1--1-0---------|----------------|---------------|
|-2---2-4-1------|--------4-3-2---|-2---2-4-1------|-2--2-1-0------|


E E E E E E Q Q E E E E E E E E E E Q Q Q E E E E E E
|----------------|----------------|---------------|----------------|
|----------------|----------------|---------------|----------------|
|----------------|----------------|---------------|-1--1-0---------|
|-2---2-3-4------|-6--6-5-4-3-2---|-2---2-4-1-----|--------4-3-2---|


E E E E Q Q Q E E E E E E E E E E Q Q Q E E E E E E
|---------------|----------------|---------------|----------------|
|---------------|----------------|---------------|----------------|
|---------------|-1--1-0---------|---------------|-1--1-0---------|
|-2---2-4-1-----|--------4-3-2---|-2---2-4-1-----|--------4-3-2---|


E E E E Q Q Q E E E E E E E E E E Q Q S S E Q H
|---------------|----------------|---------------|---------------|
|---------------|----------------|---------------|---------------|
|---------------|-1--1-0---------|---------------|-1-------------|
|-2---2-4-1-----|--------4-3-2---|-2---2-4-1-----|---------------|


Gtr I
W W W W
|----------|----------|----------|------|
|----------|----------|----------|------|
|----------|----------|----------|------|
|----------|----------|----------|------|


W W W W
|----------|----------|----------|------|
|----------|----------|----------|------|
|----------|----------|----------|------|
|----------|----------|----------|------|


W W W W
|----------|----------|----------|------------------|
|----------|----------|----------|------------------|
|----------|----------|----------|-1----------------|
|----------|----------|----------|------------------|
|
| Gtr II
| W W W S E. +Q +H
|----------|----------|----------|------------------|
|----------|----------|----------|------------------|
|----------|----------|----------|---1--(1)--(1)----|
|----------|----------|----------|------------------|


+W +W +H H Q E E E E E E
|------------|------------|-------------------|-----------------|
|------------|------------|-------------------|-----------------|
|-(1)--------|-(1)--------|-(1)---------------|-1--1-0----------|
|------------|------------|-------------------|--------4-3-2----|
|
| +W +W +H +S S E Q Q E E E E E E
|------------|------------|-------------------|-----------------|
|------------|------------|-------------------|-----------------|
|-(1)--------|-(1)--------|-(1)----(1)--------|-1--1-0----------|
|------------|------------|-------------------|--------4-3-2----|


Gtrs I, II
E E E E Q Q Q E E E E E E E E E E Q Q Q E E E E E E
|---------------|----------------|---------------|----------------|
|---------------|----------------|---------------|----------------|
|---------------|-1--1-0---------|---------------|-1--1-0---------|
|-2---2-4-1-----|--------4-3-2---|-2---2-4-1-----|--------4-3-2---|


E E E E Q Q Q E E E E E E E E E E Q Q Q E E E E E E
|---------------|----------------|---------------|----------------|
|---------------|----------------|---------------|----------------|
|---------------|-1--1-0---------|---------------|-1--1-0---------|
|-2---2-4-1-----|--------4-3-2---|-2---2-4-1-----|--------4-3-2---|


E E E E Q Q Q E E E E E E E E E E Q Q Q E E E E E E
|---------------|----------------|---------------|----------------|
|---------------|----------------|---------------|----------------|
|---------------|-1--1-0---------|---------------|-1--1-0---------|
|-2---2-4-1-----|--------4-3-2---|-2---2-4-1-----|--------4-3-2---|


E E E E Q Q Q E E E E E E H H W
|---------------|----------------|-----------|------|
|---------------|----------------|-----------|------|
|---------------|-1--1-0---------|-----------|------|
|-2---2-4-1-----|--------4-3-2---|-2----4----|-6----|


+H +Q.. S
|--------------------*|
|--------------------*|
|--------------------*|
|-(6)----(6)---------*|


Duration Legend
---------------
W - whole; H - half; Q - quarter; E - 8th; S - 16th; T - 32nd; X - 64th; a - acciaccatura
+ - note tied to previous; . - note dotted; .. - note double dotted
Uncapitalized letters represent notes that are staccato (1/2 duration)
Irregular groupings are notated above the duration line
Duration letters will always appear directly above the note/fret number it represents the
duration for. Duration letters with no fret number below them represent rests. Multi-
bar rests are notated in the form Wxn, where n is the number of bars to rest for. Low
melody durations appear below the staff

Tablature Legend
----------------
h - hammer-on
p - pull-off
b - bend
pb - pre-bend
r - bend release (if no number after the r, then release immediately)
/ - slide into or out of (from/to "nowhere")
s - legato slide
S - shift slide
- natural harmonic
[n] - artificial harmonic
n(n) - tapped harmonic
~ - vibrato
tr - trill
T - tap
TP - trem. picking
PM - palm muting
n/ - tremolo bar dip; n = amount to dip
n - tremolo bar down
n/ - tremolo bar up
/n - tremolo bar inverted dip
= - hold bend; also acts as connecting device for hammers/pulls
<> - volume swell (louder/softer)
x - on rhythm slash represents muted slash
o - on rhythm slash represents single note slash

Misc Legend
-----------
| - bar
|| - double bar
||o - repeat start
o|| - repeat end
*| - double bar (ending)
: - bar (freetime)
$ - Segno
& - Coda

-----------------------------
|  , ,   |
|     http://akords.org     |
-----------------------------

 (: 0)
    :
  • Get Down Bass
  • The One Bass
  • Weve Got It Going On Bass 2
  • Larger Than Life 5
  • Get Down
  •  
    , . '.

    ':*
    E-Mail:*
    :
    , : *
     
      

    BLIBL-