Зробити стартовою  |  Додати в вибране
 
Пошук по сайту:  
  логін: пароль:  
    Реєстрація на сайті   Нагадати пароль?    

Видавництво Симфонія | Книжкова фабрика

akords.org » B » Backstreet Boys » Everybody 2
Знайти необхідні акорди

Backstreet Boys - Everybody 2  табулатура

-------------------------------------------------------------------------------
EVERYBODY - Backstreet Boys
-------------------------------------------------------------------------------
Tabbed by: metallhead
Email: homesticky@gmail.com

Tuning: E A D G B E


Gtr I (E A D G B E) - 'Voice'
Gtr II (E A D G B E) - 'Organ'
Gtr III (E A D G B E) - 'Strings'

Q=107
4/4
Gtr I
H Q E S S Q. E +Q Q H Q E S S Q. E +Q. E
|---------1-----|-----------------|-----------1-----|------------------|
|-----------4---|--4----2-(2)-----|-------------4---|--4----2-(2)------|
|---------------|-----------------|-----------------|------------------|
|---------------|-----------------|-----------------|------------------|
|---------------|-----------------|-----------------|------------------|
|---------------|-----------------|-----------------|------------------|
|
| Gtr III
| W W H H W
|---------------|--9--------------|--9-----8--------|--9---------------|
|---------------|-11--------------|-11----10--------|-11---------------|
|---------------|-10--------------|-11----10--------|-10---------------|
|---------------|-11--------------|-11----10--------|-11---------------|
|---------------|-13--------------|-13----12--------|-13---------------|
|---------------|-----------------|-----------------|------------------|


H Q E S S Q. E +H Q Q Q S S E +W
|-----------1-----|----------------|------------------|--------|
|-------------4---|--4----2-(2)----|-----2---4--------|--------|
|-----------------|----------------|--3---------3---3-|-(3)----|
|-----------------|----------------|------------------|--------|
|-----------------|----------------|------------------|--------|
|-----------------|----------------|------------------|--------|
|
| H H W H H W
|--9-----8--------|--9-------------|--9-----11--------|--9-----|
|-11----10--------|-11-------------|-11-----13--------|-11-----|
|-11----10--------|-10-------------|-11-----13--------|-10-----|
|-11----10--------|-11-------------|-11-----13--------|-11-----|
|-13----12--------|-13-------------|-13-----15--------|-13-----|
|-----------------|----------------|------------------|--------|


Gtr II
E E E E E E E E W H H W
|--6-----9------11---18-18-|-18--------|-18----17----|-18----|
|--------------------------|-18--------|-19----18----|-18----|
|--3-----6-------8---15-15-|-18--------|-18----17----|-18----|
|--------------------------|-----------|-------------|-------|
|--------------------------|-----------|-------------|-------|
|--------------------------|-----------|-------------|-------|
|
| Q +S S E H W H H W
|--9----(9)----------------|--9--------|--9-----8----|--9----|
|-11---(11)----------------|-11--------|-11----10----|-11----|
|-10---(10)----------------|-10--------|-11----10----|-10----|
|-11---(11)----------------|-----------|-------------|-------|
|-13---(13)----------------|-----------|-------------|-------|
|--------------------------|-----------|-------------|-------|


Gtr I
H H S S S S +E S S S S S S +E S S W
|-18----17----|------------------------------------------|-----------|
|-19----18----|------------------------------------------|-----------|
|-18----17----|------------------------------------------|-----------|
|-------------|------------------------------------------|-----------|
|-------------|-13---13-11-(11)--------------------------|-----------|
|-------------|-----------------13---11---11-11-(11)-9---|-----------|
|
| H H W H H
|--9-----8----|------------------------------------------|-9----8----|
|-11----10----|------------------------------------------|-7----6----|
|-11----10----|------------------------------------------|-----------|
|-------------|------------------------------------------|-----------|
|-------------|------------------------------------------|-----------|
|-------------|------------------------------------------|-----------|


S S S S +E S S S S S S E S S W S S S S +E S S S S S S E S S
|-------------------------------|-----------|--------------------------------|
|-------------------------------|-----------|--------------------------------|
|-------------------------------|-----------|-3---3-1-(1)--------------------|
|-8---8-6-(6)-------------------|-----------|-------------3---1---1---1------|
|-------------8---6---6---6-4---|-----------|---------------------------4----|
|-------------------------------|-----------|--------------------------------|
|
| W H H W
|-------------------------------|-9----8----|--------------------------------|
|-------------------------------|-7----6----|--------------------------------|
|-------------------------------|-----------|--------------------------------|
|-------------------------------|-----------|--------------------------------|
|-------------------------------|-----------|--------------------------------|
|-------------------------------|-----------|--------------------------------|


H Q E E S S S S +S S S S S S S S E S S H E S S E E
|-------------|---------------------------------|-----------------|
|-------------|---------------------------------|--------4---4----|
|-------------|---------------------------------|--------------3--|
|-------------|-8---8-6-(6)-6-------------------|-----------------|
|-----------6-|---------------8---6---6---6-4---|-----------------|
|-------------|---------------------------------|-----------------|
|
| H H W H H
|-9----8------|---------------------------------|-9----8----------|
|-7----6------|---------------------------------|-7----6----------|
|-------------|---------------------------------|-----------------|
|-------------|---------------------------------|-----------------|
|-------------|---------------------------------|-----------------|
|-------------|---------------------------------|-----------------|


E. S E E H Q. S S E S S E S S E. S E E H
|----------------|--6----5----------------|----------------|
|--2--4---4------|--------------4---4-----|--2--4---4------|
|----------------|--6----5------------3---|----------------|
|----------------|------------------------|----------------|
|----------------|------------------------|----------------|
|----------------|------------------------|----------------|
|
| Gtr II
| W H H W
|-18-------------|-18--------17-----------|-18-------------|
|-18-------------|-19--------18-----------|-18-------------|
|-18-------------|-18--------17-----------|-18-------------|
|----------------|------------------------|----------------|
|----------------|------------------------|----------------|
|----------------|------------------------|----------------|
|
| Gtr III
| W H H W
|--6-------------|--6---------5-----------|--6-------------|
|--6-------------|--7---------6-----------|--6-------------|
|--6-------------|--6---------5-----------|--6-------------|
|----------------|------------------------|----------------|
|----------------|------------------------|----------------|
|----------------|------------------------|----------------|


Q. S S E S S E S S E. S E E H Q. E +S S E S S S S
|--6----5----------------|----------------|--6----5-(5)-------------|
|--------------4---4-----|--2--4---4------|---------------------4---|
|--6----5------------3---|----------------|--6----5-(5)-----6-------|
|------------------------|----------------|-------------------------|
|------------------------|----------------|-------------------------|
|------------------------|----------------|-------------------------|
|
| H H W H H
|-18--------17-----------|-18-------------|-18------17--------------|
|-19--------18-----------|-18-------------|-19------18--------------|
|-18--------17-----------|-18-------------|-18------17--------------|
|------------------------|----------------|-------------------------|
|------------------------|----------------|-------------------------|
|------------------------|----------------|-------------------------|
|
| H H W H H
|--6---------5-----------|--6-------------|--6-------5--------------|
|--7---------6-----------|--6-------------|--7-------6--------------|
|--6---------5-----------|--6-------------|--6-------5--------------|
|------------------------|----------------|-------------------------|
|------------------------|----------------|-------------------------|
|------------------------|----------------|-------------------------|


E S S S S E E E E S S E S S E E S S E S S S S Q. E H
|-------------------------|--1-2---1----------13---11---|-11----9------|
|--6-7---6---7--6-4-2-----|----------4--2---------------|--------------|
|---------------------3---|-------------------10----8---|--8----6------|
|-------------------------|-----------------------------|--------------|
|-------------------------|-----------------------------|--------------|
|-------------------------|-----------------------------|--------------|
|
| H H H Q Q W
|-20-----------18---------|-21---------20---------------|-18-----------|
|-19-----------19---------|-21---------21---------------|-18-----------|
|-18-----------18---------|-20---------20---------------|-18-----------|
|-------------------------|-----------------------------|--------------|
|-------------------------|-----------------------------|--------------|
|-------------------------|-----------------------------|--------------|
|
| H H H Q Q W
|--8------------6---------|--9----------8---------------|--9-----------|
|--7------------7---------|--9----------9---------------|-11-----------|
|--6------------6---------|--8----------8---------------|-10-----------|
|-------------------------|-----------------------------|--------------|
|-------------------------|-----------------------------|--------------|
|-------------------------|-----------------------------|--------------|


Q +S S S S Q E S S Q. E H Q +S S S S Q E S S
|--6--(6)---5-------13-11---|-11----9------|--6--(6)---5-------13-11---|
|---------------------------|--------------|---------------------------|
|--6--(6)---5-------10--8---|--8----6------|--6--(6)---5-------10--8---|
|---------------------------|--------------|---------------------------|
|---------------------------|--------------|---------------------------|
|---------------------------|--------------|---------------------------|
|
| H H W H H
|-18------------17----------|-18-----------|-18------------17----------|
|-19------------18----------|-18-----------|-19------------18----------|
|-18------------17----------|-18-----------|-18------------17----------|
|---------------------------|--------------|---------------------------|
|---------------------------|--------------|---------------------------|
|---------------------------|--------------|---------------------------|
|
| H H W H H
|--9-------------8----------|--9-----------|--9-------------8----------|
|-11------------10----------|-11-----------|-11------------10----------|
|-11------------10----------|-10-----------|-11------------10----------|
|---------------------------|--------------|---------------------------|
|---------------------------|--------------|---------------------------|
|---------------------------|--------------|---------------------------|


Q. E +Q Q E E E E Q E E W E E E E Q E E
|-11----9-(9)-----|------9---11-------|-----------|------9---11--18-18-|
|-----------------|-11-----------11---|-----------|-11-----------------|
|--8----6-(6)-----|------6----8-------|-----------|------6----8--15----|
|-----------------|--8------------8-8-|-----------|--8-----------------|
|-----------------|-------------------|-----------|--------------------|
|-----------------|-------------------|-----------|--------------------|
|
| W H H W H H
|-18--------------|-18-------20-------|-18--------|-18-------20--------|
|-18--------------|-19-------21-------|-18--------|-19-------21--------|
|-18--------------|-18-------20-------|-18--------|-18-------20--------|
|-----------------|-------------------|-----------|--------------------|
|-----------------|-------------------|-----------|--------------------|
|-----------------|-------------------|-----------|--------------------|
|
| W H H W H H
|--9--------------|--9-------11-------|--9--------|--9-------11--------|
|-11--------------|-11-------13-------|-11--------|-11-------13--------|
|-10--------------|-11-------13-------|-10--------|-11-------13--------|
|-----------------|-------------------|-----------|--------------------|
|-----------------|-------------------|-----------|--------------------|
|-----------------|-------------------|-----------|--------------------|


+S S E Q H H Q E E W H Q E E
|-(18)-------------|-----------------|-----------|----------------|
|------------------|-----------23-23-|-----------|----------------|
|------------------|-----------------|-----------|----------------|
|------------------|-----------20-20-|-----------|-------------3--|
|------------------|-----------------|-----------|----------------|
|------------------|-----------------|-----------|----------------|
|
| W H H W H H
|--18--------------|-18----17--------|-18--------|-18----17-------|
|--18--------------|-19----18--------|-18--------|-19----18-------|
|--18--------------|-18----17--------|-18--------|-18----17-------|
|------------------|-----------------|-----------|----------------|
|------------------|-----------------|-----------|----------------|
|------------------|-----------------|-----------|----------------|
|
| W H H W H H
|---9--------------|--9-----8--------|--9--------|--9-----8-------|
|--11--------------|-11----10--------|-11--------|-11----10-------|
|--10--------------|-11----10--------|-10--------|-11----10-------|
|------------------|-----------------|-----------|----------------|
|------------------|-----------------|-----------|----------------|
|------------------|-----------------|-----------|----------------|


E S S S S E S S S S E E W S S S S S S S S S S S S E S S
|--------------------------|-------------|----------------------------------|
|--------------------------|-------------|----------------------------------|
|--1-1-3---3---1---1---3---|-------------|---1----1-3---3-------------------|
|------------3-------------|-------------|----------------3---1---1---1-----|
|--------------------------|-------------|------------------------------4---|
|--------------------------|-------------|----------------------------------|
|
| Gtr III
| W +W +W
|-18-----------------------|-(18)--------|-(18)-----------------------------|
|-18-----------------------|-(18)--------|-(18)-----------------------------|
|--------------------------|-------------|----------------------------------|
|--------------------------|-------------|----------------------------------|
|--------------------------|-------------|----------------------------------|
|--------------------------|-------------|----------------------------------|


H Q E S S S S S S S S S S S S S S E E H Q E S S
|------------------|--------------------------------|-------------------|
|------------------|--------------------------------|-------------------|
|------------------|---1----1-3---3-----1---1---3---|-------------------|
|--------------3---|----------------3---------------|--------------3----|
|------------------|--------------------------------|-------------------|
|------------------|--------------------------------|-------------------|
|
| +W +W +W
|-(18)-------------|-(18)---------------------------|-(18)--------------|
|-(18)-------------|-(18)---------------------------|-(18)--------------|
|------------------|--------------------------------|-------------------|
|------------------|--------------------------------|-------------------|
|------------------|--------------------------------|-------------------|
|------------------|--------------------------------|-------------------|


S S S S S S S S S S S S E E H E S S E E E. S E S S H
|--------------------------------|-------------------|------------------|
|--------------------------------|-----------4---4---|--2--4---4--------|
|---1----1-3---3-----------------|-----------------3-|------------------|
|----------------3---1---1---1---|-------------------|------------------|
|------------------------------4-|-------------------|------------------|
|--------------------------------|-------------------|------------------|
|
| Gtr II
| W W W
|--------------------------------|-------------------|-18---------------|
|--------------------------------|-------------------|-18---------------|
|--------------------------------|-------------------|-18---------------|
|--------------------------------|-------------------|------------------|
|--------------------------------|-------------------|------------------|
|--------------------------------|-------------------|------------------|
|
| Gtr III
| +W +H H W
|-(18)---------------------------|-(18)--------------|------------------|
|-(18)---------------------------|-(18)--------------|------------------|
|--------------------------------|-------------------|------------------|
|--------------------------------|-------------------|-20---------------|
|--------------------------------|-------------------|-20---------------|
|--------------------------------|-------------------|-21---------------|


Q. S S E S S E S S E. S E E H Q. S S E S S E S S
|--6----5----------------|--2--1---1------|--6----5----------------|
|--------------4---4-----|----------------|--2----1------4---4-----|
|--6----5------------3---|----------------|--------------------3---|
|------------------------|----------------|------------------------|
|------------------------|----------------|------------------------|
|------------------------|----------------|------------------------|
|
| H H W H H
|-18--------17-----------|-18-------------|-18--------17-----------|
|-19--------18-----------|-18-------------|-19--------18-----------|
|-18--------17-----------|-18-------------|-18--------17-----------|
|------------------------|----------------|------------------------|
|------------------------|----------------|------------------------|
|------------------------|----------------|------------------------|
|
| H H W H H
|------------------------|----------------|------------------------|
|------------------------|----------------|------------------------|
|------------------------|----------------|------------------------|
|-20--------19-----------|-20-------------|-20--------19-----------|
|-21--------20-----------|-20-------------|-21--------20-----------|
|-21--------20-----------|-21-------------|-21--------20-----------|


E. S E E H Q. E +S S E S S S S E S S S S E E E E S S
|----------------|--6----5-(5)-------------|-------------------------|
|--2--4---4------|---------------------4---|--6-7---6---7--6-4-2-----|
|----------------|--6----5-(5)-----6-------|---------------------3---|
|----------------|-------------------------|-------------------------|
|----------------|-------------------------|-------------------------|
|----------------|-------------------------|-------------------------|
|
| W H H H H
|-18-------------|-18------17--------------|-20-----------18---------|
|-18-------------|-19------18--------------|-19-----------19---------|
|-18-------------|-18------17--------------|-18-----------18---------|
|----------------|-------------------------|-------------------------|
|----------------|-------------------------|-------------------------|
|----------------|-------------------------|-------------------------|
|
| W H H H H
|----------------|-------------------------|-------------------------|
|----------------|-------------------------|-------------------------|
|----------------|-------------------------|-------------------------|
|-20-------------|-20------19--------------|-22-----------20---------|
|-20-------------|-21------20--------------|-21-----------21---------|
|-21-------------|-21------20--------------|-21-----------21---------|


E S S E E S S E S S S S Q. E H Q +S S S S Q E S S
|--1-2---1----------13---11---|-11----9------|--6--(6)---5-------13-11---|
|----------4--2---------------|--------------|---------------------------|
|-------------------10----8---|--8----6------|--6--(6)---5-------10--8---|
|-----------------------------|--------------|---------------------------|
|-----------------------------|--------------|---------------------------|
|-----------------------------|--------------|---------------------------|
|
| H Q Q W H H
|-21---------20---------------|-18-----------|-18------------17----------|
|-21---------21---------------|-18-----------|-19------------18----------|
|-20---------20---------------|-18-----------|-18------------17----------|
|-----------------------------|--------------|---------------------------|
|-----------------------------|--------------|---------------------------|
|-----------------------------|--------------|---------------------------|
|
| H Q Q W H H
|-----------------------------|--------------|---------------------------|
|-----------------------------|--------------|---------------------------|
|-18---------17---------------|-18-----------|-18------------17----------|
|-18---------18---------------|-20-----------|-20------------19----------|
|-18---------18---------------|-20-----------|-21------------20----------|
|-----------------------------|--------------|---------------------------|


Q. E H Q +S S S S Q E S S
|-11----9------|--6--(6)---5-------13-11---|
|--------------|---------------------------|
|--8----6------|--6--(6)---5-------10--8---|
|--------------|---------------------------|
|--------------|---------------------------|
|--------------|---------------------------|
|
| W H H
|-18-----------|-18------------17----------|
|-18-----------|-19------------18----------|
|-18-----------|-18------------17----------|
|--------------|---------------------------|
|--------------|---------------------------|
|--------------|---------------------------|
|
| W H H
|--------------|---------------------------|
|--------------|---------------------------|
|-18-----------|-18------------17----------|
|-20-----------|-20------------19----------|
|-20-----------|-21------------20----------|
|--------------|---------------------------|


Q. E +Q Q E E E E Q E E
|-11----9-(9)-----|------9---11--------|
|-----------------|-11-----------11----|
|--8----6-(6)-----|------6----8--------|
|-----------------|--8------------8-8--|
|-----------------|--------------------|
|-----------------|--------------------|
|
| W H H
|-18--------------|-18-------20--------|
|-18--------------|-19-------21--------|
|-18--------------|-18-------20--------|
|-----------------|--------------------|
|-----------------|--------------------|
|-----------------|--------------------|
|
| W H H
|-----------------|--------------------|
|-----------------|----------16--------|
|-18--------------|-18-------17--------|
|-20--------------|-20-------18--------|
|-20--------------|-21-----------------|
|-----------------|--------------------|


W E E E E Q E E +S S E Q H H Q E E
|-----------|------9---11--18-18-|-(18)-------------|------------------|
|-----------|-11-----------------|------------------|-----------23-23--|
|-----------|------6----8--15----|------------------|------------------|
|-----------|--8-----------------|------------------|-----------20-20--|
|-----------|--------------------|------------------|------------------|
|-----------|--------------------|------------------|------------------|
|
| W H H W H H
|-18--------|-18-------20--------|--18--------------|-18----17---------|
|-18--------|-19-------21--------|--18--------------|-19----18---------|
|-18--------|-18-------20--------|--18--------------|-18----17---------|
|-----------|--------------------|------------------|------------------|
|-----------|--------------------|------------------|------------------|
|-----------|--------------------|------------------|------------------|
|
| W H H W H H
|-----------|--------------------|------------------|------------------|
|-14--------|-14-------16--------|--14--------------|-14----13---------|
|-15--------|-15-------17--------|--15--------------|-15----14---------|
|-15--------|-16-------18--------|--15--------------|-16----15---------|
|-----------|--------------------|------------------|------------------|
|-----------|--------------------|------------------|------------------|


Gtr II Gtr I
S S E Q H W W H Q E S S
|-18-------------|----------|----------|----------------|
|-18-------------|----------|----------|----------------|
|-18-------------|----------|----------|----------------|
|----------------|----------|----------|----------------|
|----------------|----------|----------|----------------|
|----------------|----------|----------|-----------18---|
|
| Gtr III
| S S E Q H W W W
|----------------|----------|----------|----------------|
|-14-------------|----------|----------|----------------|
|-15-------------|----------|----------|----------------|
|-15-------------|----------|----------|----------------|
|----------------|----------|----------|----------------|
|----------------|----------|----------|----------------|


S S S S +E S S S S S S E E
|-------------------------------------|
|-------------------------------------|
|-------------------------------------|
|-------------------------------------|
|-16---16-18-(18)------16---16---18---|
|-----------------18------------------|
|
| W
|--6----------------------------------|
|--6----------------------------------|
|--6----------------------------------|
|--8----------------------------------|
|-------------------------------------|
|--6----------------------------------|


H Q E S S S S S S +S S E S S S S E E
|----------------|--------------------------------------|
|----------------|--------------------------------------|
|----------------|--------------------------------------|
|----------------|--------------------------------------|
|----------------|-16---16-18-(18)-18----16---16---18---|
|-----------18---|--------------------18----------------|
|
| H H W
|-1----5---------|--------------------------------------|
|-1----6---------|--7-----------------------------------|
|------5---------|--8-----------------------------------|
|-3--------------|-11-----------------------------------|
|----------------|--------------------------------------|
|-1--------------|--------------------------------------|


H Q E S S S S S S +S S S S S S E E E H Q E E
|----------------|-------------------------------------|---------------|
|----------------|-------------------------------------|---------------|
|----------------|-------------------------------------|---------------|
|----------------|-------------------------------------|---------------|
|----------------|-16---16-18-(18)--------16---16-18---|---------------|
|-----------18---|-------------------18----------------|------------16-|
|
| H H W H H
|-2----4---------|--6----------------------------------|-1-----8-------|
|-2----4---------|--6----------------------------------|-1----10-------|
|------1---------|--6----------------------------------|------10-------|
|-4--------------|--8----------------------------------|-3-------------|
|----------------|-------------------------------------|---------------|
|-2----4---------|--6----------------------------------|-1-------------|


E E E E E E E E E E E E E E S S E
|-------------------------|------------------------|
|-------------------------|------------------------|
|-------------------------|------------------------|
|-------------------------|------------------------|
|----------16-18-20-18-20-|-18---20---18---16---15-|
|-14-16-18----------------|------------------------|
|
| H H H H
|--2-----------2----------|--4---------4-----------|
|--2-----------2----------|--4---------4-----------|
|-------------------------|--1---------1-----------|
|--4-----------4----------|------------------------|
|-------------------------|------------------------|
|--2-----------2----------|--4---------4-----------|


+E E +Q H W
|--------------------|---------|
|--------------------|---------|
|--------------------|---------|
|--------------------|---------|
|-(15)-13-(13)-------|---------|
|--------------------|---------|
|
| Gtrs II, III
| W +W
|--18----------------|-(18)----|
|--------------------|---------|
|--------------------|---------|
|--------------------|---------|
|--------------------|---------|
|--------------------|---------|


W H Q E S S
|-------------|--------------------|
|-------------|------------18-16---|
|-------------|--------------------|
|-------------|------------15-13---|
|-------------|--------------------|
|-------------|--------------------|
|
| Gtr II
| +W +H H
|-(18)--------|-(18)---------------|
|-------------|--------------------|
|-------------|--------------------|
|-------------|--------------------|
|-------------|--------------------|
|-------------|--------------------|
|
| Gtr III
| +W +H H
|-(18)--------|-(18)---------------|
|-------------|--------------------|
|-------------|--------------------|
|-------------|--------------------|
|-------------|--------------------|
|-------------|--------------------|


Q. E H Q +S S S S Q E S S
|---------------|---------------------13-11---|
|-16----14------|-11--(11)---10---------------|
|---------------|---------------------10--8---|
|-13----11------|-11--(11)---10---------------|
|---------------|-----------------------------|
|---------------|-----------------------------|
|
| W H H
|-18------------|-18--------------17----------|
|-18------------|-19--------------18----------|
|-18------------|-18--------------17----------|
|---------------|-----------------------------|
|---------------|-----------------------------|
|---------------|-----------------------------|
|
| W H H
|---------------|-----------------------------|
|---------------|-----------------------------|
|-18------------|-18--------------17----------|
|-20------------|-20--------------19----------|
|-20------------|-21--------------20----------|
|---------------|-----------------------------|


Q. E H Q +S S S S Q E S S
|-11----9------|--6--(6)---5-------13-11---|
|--------------|---------------------------|
|--8----6------|--6--(6)---5-------10--8---|
|--------------|---------------------------|
|--------------|---------------------------|
|--------------|---------------------------|
|
| W H H
|-18-----------|-18------------17----------|
|-18-----------|-19------------18----------|
|-18-----------|-18------------17----------|
|--------------|---------------------------|
|--------------|---------------------------|
|--------------|---------------------------|
|
| W H H
|--------------|---------------------------|
|--------------|---------------------------|
|-18-----------|-18------------17----------|
|-20-----------|-20------------19----------|
|-20-----------|-21------------20----------|
|--------------|---------------------------|


Q. E +Q Q E E E E Q E E
|-11----9-(9)-----|------9---11--------|
|-----------------|-11-----------11----|
|--8----6-(6)-----|------6----8--------|
|-----------------|--8------------8-8--|
|-----------------|--------------------|
|-----------------|--------------------|
|
| W H H
|-18--------------|-18-------20--------|
|-18--------------|-19-------21--------|
|-18--------------|-18-------20--------|
|-----------------|--------------------|
|-----------------|--------------------|
|-----------------|--------------------|
|
| W H H
|-----------------|--------------------|
|-----------------|----------16--------|
|-18--------------|-18-------17--------|
|-20--------------|-20-------18--------|
|-20--------------|-21-----------------|
|-----------------|--------------------|


W E E E E Q E S S Q. E H Q +S S S S Q E S S
|-----------|------9---11--13-11---|-11----9------|--6--(6)---5-------13-11---|
|-----------|-11-------------------|--------------|---------------------------|
|-----------|------6----8--10--8---|--8----6------|--6--(6)---5-------10--8---|
|-----------|--8-------------------|--------------|---------------------------|
|-----------|----------------------|--------------|---------------------------|
|-----------|----------------------|--------------|---------------------------|
|
| W H H W H H
|-18--------|-18-------20----------|-18-----------|-18------------17----------|
|-18--------|-19-------21----------|-18-----------|-19------------18----------|
|-18--------|-18-------20----------|-18-----------|-18------------17----------|
|-----------|----------------------|--------------|---------------------------|
|-----------|----------------------|--------------|---------------------------|
|-----------|----------------------|--------------|---------------------------|
|
| W H H W H H
|-----------|----------------------|--------------|---------------------------|
|-14--------|-14-------16----------|-14-----------|-14------------13----------|
|-15--------|-15-------17----------|-15-----------|-15------------14----------|
|-15--------|-16-------18----------|-15-----------|-16------------15----------|
|-----------|----------------------|--------------|---------------------------|
|-----------|----------------------|--------------|---------------------------|


Q. E H Q +S S S S Q E S S
|-11----9------|--6--(6)---5-------13-11---|
|--------------|---------------------------|
|--8----6------|--6--(6)---5-------10--8---|
|--------------|---------------------------|
|--------------|---------------------------|
|--------------|---------------------------|
|
| W H H
|-18-----------|-18------------17----------|
|-18-----------|-19------------18----------|
|-18-----------|-18------------17----------|
|--------------|---------------------------|
|--------------|---------------------------|
|--------------|---------------------------|
|
| W H H
|--------------|---------------------------|
|-14-----------|-14------------13----------|
|-15-----------|-15------------14----------|
|-15-----------|-16------------15----------|
|--------------|---------------------------|
|--------------|---------------------------|


Q. E +Q Q E E E E Q E E
|-11----9-(9)-----|------9---11--------|
|-----------------|-11-----------11----|
|--8----6-(6)-----|------6----8--------|
|-----------------|--8------------8-8--|
|-----------------|--------------------|
|-----------------|--------------------|
|
| W H H
|-18--------------|-18-------20--------|
|-18--------------|-19-------21--------|
|-18--------------|-18-------20--------|
|-----------------|--------------------|
|-----------------|--------------------|
|-----------------|--------------------|
|
| W H H
|-----------------|--------------------|
|-14--------------|-14-------16--------|
|-15--------------|-15-------17--------|
|-15--------------|-16-------18--------|
|-----------------|--------------------|
|-----------------|--------------------|


W E E E E Q E E +S S E Q H W
|-----------|------9---11--18-18-|-(18)-------------|---------------*|
|-----------|-11-----------------|------------------|---------------*|
|-----------|------6----8--15----|------------------|---------------*|
|-----------|--8-----------------|------------------|---------------*|
|-----------|--------------------|------------------|---------------*|
|-----------|--------------------|------------------|---------------*|
|
| W H H W +W
|-18--------|-18-------20--------|------------------|---------------*|
|-18--------|-19-------21--------|------------------|---------------*|
|-18--------|-18-------20--------|------------------|---------------*|
|-----------|--------------------|------------------|---------------*|
|-----------|--------------------|---1--------------|-(1)-----------*|
|-----------|--------------------|------------------|---------------*|
|
| W H H W +H +H
|-----------|--------------------|------------------|---------------*|
|-14--------|-14-------16--------|------------------|---------------*|
|-15--------|-15-------17--------|------------------|---------------*|
|-15--------|-16-------18--------|------------------|---------------*|
|-----------|--------------------|---1--------------|-(1)----(1)----*|
|-----------|--------------------|------------------|---------------*|


Duration Legend
---------------
W - whole; H - half; Q - quarter; E - 8th; S - 16th; T - 32nd; X - 64th; a - acciaccatura
+ - note tied to previous; . - note dotted; .. - note double dotted
Uncapitalized letters represent notes that are staccato (1/2 duration)
Irregular groupings are notated above the duration line
Duration letters will always appear directly above the note/fret number it represents the
duration for. Duration letters with no fret number below them represent rests. Multi-
bar rests are notated in the form Wxn, where n is the number of bars to rest for. Low
melody durations appear below the staff

Tablature Legend
----------------
h - hammer-on
p - pull-off
b - bend
pb - pre-bend
r - bend release (if no number after the r, then release immediately)
/ - slide into or out of (from/to "nowhere")
s - legato slide
S - shift slide
<n> - natural harmonic
[n] - artificial harmonic
n(n) - tapped harmonic
~ - vibrato
tr - trill
T - tap
TP - trem. picking
PM - palm muting
n/ - tremolo bar dip; n = amount to dip
n - tremolo bar down
n/ - tremolo bar up
/n - tremolo bar inverted dip
= - hold bend; also acts as connecting device for hammers/pulls
<> - volume swell (louder/softer)
x - on rhythm slash represents muted slash
o - on rhythm slash represents single note slash

Misc Legend
-----------
| - bar
|| - double bar
||o - repeat start
o|| - repeat end
*| - double bar (ending)
: - bar (freetime)
$ - Segno
& - Coda

-----------------------------
|  акорди, навчання, відео  |
|     http://akords.org     |
-----------------------------

 (голосів: 0)
   Інші пісні:
  • The One Bass
  • Get Down Bass
  • The One
  • Everybody Bass 2
  • Weve Got It Going On
  •  
    Шановний відвідувач, Ви зайшли на сайт як незареєстрований користувач. Ми рекомендуємо Вам реєструватися або зайти на сайт під своїм ім'ям.

    Додавання коментаря

    Ім'я:*
    E-Mail:*
    Коментар:
    Введіть два слова, показані на зображенні: *
     
      

    BLIBL-створити сайт безкоштовно