Зробити стартовою  |  Додати в вибране
 
Пошук по сайту:  
  логін: пароль:  
    Реєстрація на сайті   Нагадати пароль?    

Видавництво Симфонія | Книжкова фабрика

akords.org » B » Backstreet Boys » Drowning Bass
Знайти необхідні акорди

Backstreet Boys - Drowning Bass  табулатура

-------------------------------------------------------------------------------
DRAWNING - Backstreet Boys
-------------------------------------------------------------------------------
Tabbed by: metallhead
Email: homesticky@gmail.com

Tuning: E A D G


Gtr I (E A D G) - 'Bass'

Q=72
4/4
Gtr I
W W W W
|----------|----------|----------|------|
|----------|----------|----------|------|
|----------|----------|----------|------|
|----------|----------|----------|------|


W W W W
|----------|----------|----------|------|
|----------|----------|----------|------|
|----------|----------|----------|------|
|----------|----------|----------|------|


W W W W
|----------|----------|----------|------|
|----------|----------|----------|------|
|----------|----------|----------|------|
|----------|----------|----------|------|


W W W W
|----------|----------|----------|------|
|----------|----------|----------|------|
|----------|----------|----------|------|
|----------|----------|----------|------|


H H S S E +S S E Q. S S S S E Q S S E +Q
|-----------|------------------------|----------------------|
|-----------|------------------------|----------------------|
|------2----|-2---2-(2)-2------------|----------------------|
|-----------|-------------4-2------2-|---2-2-2--4---4-(4)---|


S S E +S S E H S S E +S S E H S S E +S S E Q. S S
|--------------------|--------------------|------------------------|
|--------------------|-------------4------|------------------------|
|--------------------|-----------4---2----|-2---2-(2)-2------------|
|-4-6-7-(7)---2-0----|-2---2-(2)----------|-------------4-2------2-|


S S E Q S S E +Q S S E +S S E S S E +S S E H H
|---------------------|-----------------------------|-----------|
|---------------------|-----------------------------|-----------|
|---------------------|-----------------------------|------2----|
|---2-2-2--4---4-(4)--|-4-6-7-(7)---2-0---0-(0)---0-|-2---------|


+Q Q Q. E S S E +S S E Q. S S S S E +E E H
|----------------|------------------------|------------------|
|------2---------|------------------------|------------------|
|-(2)-----0------|-0---0-(0)---0----------|------------------|
|----------------|---------------0------0-|-0---0-(0)-0-2----|


S S E +S S E Q. S S S S E +Q Q. S S S S E +Q Q. S S
|------------------------|---------------------|---------------------|
|---------------0------0-|-2---2-(2)-----------|---------------------|
|------------------------|------------0------0-|-0---0-(0)-----------|
|-2---2-(2)---2----------|---------------------|------------0------0-|


S S E +Q Q. S S S S E +E E Q.. S S S E +Q Q +S E S
|---------------------|---------------------|------------------------|
|---------------------|---------------------|------------------------|
|---------------------|-----------4-5-----5-|-5-7-8-(8)--------------|
|-0---0-(0)--2------2-|-2---2-(2)-----------|------------7--(7)---7--|


Q. S S H +S S E +S E. Q. S S
|----------------|----------------------------|
|----------------|----------------------------|
|----------------|----------------------------|
|-9------9-10----|-(10)---10-(10)-9--7------7-|


Q. S S Q. S S H H
|---------------------|------------|
|---------------------|------------|
|---------------------|------------|
|-9------9-10------10-|-12----0----|


H S S E +S S E Q. S S S S E Q S S E +Q S S E +S S E
|--------------------|-------------------|--------------------------|
|--------------------|-------------------|--------------------------|
|-2----2---2-(2)-2---|-------------------|--------------------------|
|------------------4-|-2------2---2-2-2--|-4---4-(4)--4-6-7-(7)---2-|


H S S E +S S E H S S E +S S E Q. S S S S E Q
|--------------------|--------------------|-------------------|
|------------------4-|--------------------|-------------------|
|----------------4---|-2----2---2-(2)-2---|-------------------|
|-0----2---2-(2)-----|------------------4-|-2------2---2-2-2--|


S S E +Q S S E +S S E S S E +S S E H Q. S S S S E +S E.
|--------------------------|--------------------|-----------------------|
|--------------------------|--------------------|-----------------------|
|--------------------------|--------------------|--------------------0--|
|-4---4-(4)--4-6-7-(7)---2-|-0---0-(0)---0-2----|-3------3---3-3-(3)----|


H Q S E. Q. E Q S S E Q +S S E +E S S S S S S
|--------------|-----------------|-----------------------------|
|--------------|-----------------|------------------4-6-4------|
|-2----2----0--|-----------------|----------------4-------6-4--|
|--------------|-3------3----3-3-|-2--(2)---2-(2)--------------|


E S S S S S S E E Q W Q. S S S S E Q
|----------------------|----------|--------------------|
|-------------8-6------|----------|--------------------|
|---3-4-6-8-9----------|----------|--------------------|
|-4--------------------|----------|-4------4---4-4-4---|


S S E +Q S S E +S S E H S S E +S S E H S S E +S S E
|--------------------------|--------------------|--------------------|
|--------------------------|------------------6-|--------------------|
|--------------------------|----------------6---|-4----4---4-(4)-4---|
|-6---6-(6)--6-8-9-(9)---4-|-2----4---4-(4)-----|------------------6-|


Q. S S S S E Q S S E +Q S S E +S S E S S E +S S E H
|-------------------|--------------------------|--------------------|
|-------------------|--------------------------|--------------------|
|-------------------|--------------------------|--------------------|
|-4------4---4-4-4--|-6---6-(6)--6-8-9-(9)---4-|-2---2-(2)---2-4----|


H S S E +S S E Q. S S S S E Q S S E +Q S S E +S S E
|--------------------|-------------------|--------------------------|
|--------------------|-------------------|--------------------------|
|-4----4---4-(4)-4---|-------------------|--------------------------|
|------------------6-|-4------4---4-4-4--|-6---6-(6)--6-8-9-(9)---4-|


H S S E +S S E Q Q Q Q Q. S S S S E Q
|--------------------|-------------|-------------------|
|------------------6-|-------------|-------------------|
|----------------6---|-4--6--8--9--|-------------------|
|-2----4---4-(4)-----|-------------|-4------4---4-4-4--|


S S E +Q S S E +S S E S S E +S S E H H S S E +S S E
|--------------------------|--------------------|--------------------|
|--------------------------|--------------------|--------------------|
|--------------------------|--------------------|-4----4---4-(4)-4---|
|-6---6-(6)--6-8-9-(9)---4-|-2---2-(2)---2-4----|------------------6-|


Q. S S S S E Q S S E +Q S S E +S S E S S E +S S E H
|-------------------|--------------------------|--------------------|
|-------------------|--------------------------|--------------------|
|-------------------|--------------------------|--------------------|
|-4------4---4-4-4--|-6---6-(6)--6-8-9-(9)---4-|-2---2-(2)---2-4----|


H S S E +S S E Q. S S S S E Q S S E +Q S S E +S S E
|--------------------|-------------------|--------------------------|
|--------------------|-------------------|--------------------------|
|-4----4---4-(4)-4---|-------------------|--------------------------|
|------------------6-|-4------4---4-4-4--|-6---6-(6)--6-8-9-(9)---4-|


S S E +S S E H H S S E +S S E Q. S S E E +E E
|--------------------|--------------------|---------------------|
|--------------------|--------------------|---------------------|
|--------------------|-4----4---4-(4)-4---|---------------------|
|-2---2-(2)---2-4----|------------------6-|-4------4-5-5-(5)----|


S S E +Q S S E +S S E H H
|--------------------------|-----------*|
|--------------------------|-----------*|
|--------------------------|-----------*|
|-6---6-(6)--6-8-9-(9)---4-|-2----4----*|


Duration Legend
---------------
W - whole; H - half; Q - quarter; E - 8th; S - 16th; T - 32nd; X - 64th; a - acciaccatura
+ - note tied to previous; . - note dotted; .. - note double dotted
Uncapitalized letters represent notes that are staccato (1/2 duration)
Irregular groupings are notated above the duration line
Duration letters will always appear directly above the note/fret number it represents the
duration for. Duration letters with no fret number below them represent rests. Multi-
bar rests are notated in the form Wxn, where n is the number of bars to rest for. Low
melody durations appear below the staff

Tablature Legend
----------------
h - hammer-on
p - pull-off
b - bend
pb - pre-bend
r - bend release (if no number after the r, then release immediately)
/ - slide into or out of (from/to "nowhere")
s - legato slide
S - shift slide
<n> - natural harmonic
[n] - artificial harmonic
n(n) - tapped harmonic
~ - vibrato
tr - trill
T - tap
TP - trem. picking
PM - palm muting
n/ - tremolo bar dip; n = amount to dip
n - tremolo bar down
n/ - tremolo bar up
/n - tremolo bar inverted dip
= - hold bend; also acts as connecting device for hammers/pulls
<> - volume swell (louder/softer)
x - on rhythm slash represents muted slash
o - on rhythm slash represents single note slash

Misc Legend
-----------
| - bar
|| - double bar
||o - repeat start
o|| - repeat end
*| - double bar (ending)
: - bar (freetime)
$ - Segno
& - Coda
Tempo markers - <E/E./Q/Q./H/H.> = BPM(8/16=s8/s16), where s8 = swing 8ths, s16 = swing 16ths

-----------------------------
|  акорди, навчання, відео  |
|     http://akords.org     |
-----------------------------

 (голосів: 0)
   Інші пісні:
  • Get Down Bass
  • The One Bass
  • Weve Got It Going On Bass 2
  • Everybody Bass 2
  • Larger Than Life Bass 2
  •  
    Шановний відвідувач, Ви зайшли на сайт як незареєстрований користувач. Ми рекомендуємо Вам реєструватися або зайти на сайт під своїм ім'ям.

    Додавання коментаря

    Ім'я:*
    E-Mail:*
    Коментар:
    Введіть два слова, показані на зображенні: *
     
      

    BLIBL-створити сайт безкоштовно