Зробити стартовою  |  Додати в вибране
 
Пошук по сайту:  
  логін: пароль:  
    Реєстрація на сайті   Нагадати пароль?    

Видавництво Симфонія | Книжкова фабрика

akords.org » B » Backstreet Boys » Drowning
Знайти необхідні акорди

Backstreet Boys - Drowning  табулатура

-------------------------------------------------------------------------------
DRAWNING - Backstreet Boys
-------------------------------------------------------------------------------
Tabbed by: metallhead
Email: homesticky@gmail.com

Tuning: E A D G B E


Gtr I (E A D G B E) - 'Piano'
Gtr II (E A D G B E) - 'Voice'
Gtr III (E A D G B E) - 'Voice'
Gtr IV (E A D G B E) - 'Strings'
Gtr V (E A D G B E) - 'Choir'
Gtr VI (E A D G B E) - 'Guitar'

Q=72
4/4
Gtr I
S S S S Q S S S S E S S S S S S E E S S S S E S S
|-----------------------------------|--------------14-----12---11---|
|-16--------------19------17---16---|--------------11------9--------|
|-16--------------16------13--------|-18-----------------------11---|
|-16----------16---------------16---|-16---4-6-8--------------------|
|-------16-18-16--------------------|-16-4--------------9-----------|
|----14----------------14------14---|--------------------------14---|


S S S S Q S S S S S S S S S S S S S S S S S S S S Q
|-7------------------6---------|-4---------------2-------2--|
|-4-----------12-----------7---|-0---------------2-------2--|
|---------11---8-----6---------|-----------------4-----4-3--|
|-----8-9--8-------6-----6-8---|-----2-4-6---9-------4------|
|---6--------------------------|---2-------7---7---4--------|
|-4----------------------------|-0---------------2----------|


Q E E E S S S S E
|-0--0---0------0--------|
|-2--2---2------2--------|
|-2--2---2-2----2--------|
|------------------------|
|-0----------------------|
|------------------------|
|
| Gtr II
| H E S S +E S S
|--------9-7-7-(7)---5-7-|
|------------------------|
|------------------------|
|------------------------|
|------------------------|
|------------------------|


Q E E S S S S E E Q E E E S S E S S
|--0------0------0-------0------|-2--2---2------2--2---|
|--0------0------0-------0------|-2--2---2------2------|
|--1------1------1---1---1------|-2--2---2---2--2------|
|-------------------------------|----------------------|
|-------------------------------|----------------------|
|--0----------------------------|-2--------------------|
|
| +S E. +S S E Q S S E H E S S +E S S
|-(7)---------------------------|--------9-7-7-(7)-5---|
|-----5--(5)-------------7-9-10-|--------------------3-|
|-------------------------------|----------------------|
|-------------------------------|----------------------|
|-------------------------------|----------------------|
|-------------------------------|----------------------|


E E E E Q E E
|--------------------0------0------|
|--3--------3--------0------0------|
|--2--------2--------2------1------|
|--4--------4----------------------|
|----------------------------------|
|--------------------0-------------|
|
| +S E. +S E S E S S +E S S
|--------------------9-7-7-(7)-5-5-|
|-(3)-3----(3)-----5---------------|
|----------------------------------|
|----------------------------------|
|----------------------------------|
|----------------------------------|


Q E S S E E E E Q E E E E S S S S
|--0------0-----0------0------|--0-------0------0-----2----4----|
|--2------2-----2------2------|--0-------0------0-----0----0----|
|--2------2-2---2------2------|--1-------1------1-----1----1----|
|-----------------------------|---------------------------------|
|--0--------------------------|---------------------------------|
|-----------------------------|--0----------------0-------------|
|
| +S S E E S S E S S +E S S +S S E +S S E E S S S S E
|-(5)-----------9-7-7-(7)-5-7-|-(7)-----------------------------|
|-------------5---------------|-----5-5-(5)---------7-7-9-10----|
|-----------------------------|---------------------------------|
|-----------------------------|---------------------------------|
|-----------------------------|---------------------------------|
|-----------------------------|---------------------------------|


Q E E E E E S S
|---2------5-----5------5------|
|---2------7-----7------7------|
|----------6-----6------6--6---|
|------------------------------|
|------------------------------|
|---2--------------------------|
|
| +S S E E S S E S S +E S S
|----------------9-7-7-(7)-5---|
|-(10)-----------------------3-|
|--------------9---------------|
|------------------------------|
|------------------------------|
|------------------------------|
|
| Gtr III
| W
|------------------------------|
|------------------------------|
|------------------------------|
|------------------------------|
|------------------------------|
|------------------------------|


E E E S S S S E +Q Q E S S Q E S S
|--------------------1---(1)-----|----------------------0------|
|--7-------7-----6---3---(3)-----|-3-----3------5-------2------|
|--7-------7-----7---2---(2)-----|-2-----2------6-------2------|
|--7-------7---7-7---------------|-4-----4---4--7--------------|
|--------------------------------|-2-------2----4---------4----|
|------------------0-1---(1)-----|-----------------------------|
|
| +S E. Q S S S S +S S E E S S E S S +S E S E S S
|----------------9-7-5-5-(5)-----|-----------------------------|
|-(3)-3--------------------------|-----------------------------|
|--------------------------------|-----------------------------|
|--------------------------------|-----7-9-7-9-(9)-11----------|
|--------------------------------|--------------------------12-|
|--------------------------------|-----------------------------|
|
| W E S S E S S +S E S E S S
|--------------------------------|-----------------------------|
|--------------------------------|------------------2----------|
|--------------------------------|-----2-4-2-4-(4)-----------2-|
|--------------------------------|-----------------------------|
|--------------------------------|-----------------------------|
|--------------------------------|-----------------------------|


Q E S S E S S S E.
|--2------2--------------2---2-0--|
|--3------3---------3------3-3-2--|
|--2------2------2--2----2---2-2--|
|--0-----------0-------------0----|
|------------------------------4--|
|---------------------------------|
|
| E S S +S S E +S S E Q
|---------------------------------|
|---------------------------------|
|---------------------------------|
|-11-9-9-(9)-7-9---(9)------------|
|---------------------------------|
|---------------------------------|
|
| E S S +S S E +S S E Q
|---------------------------------|
|--2------------------------------|
|----4-4-(4)-2-4---(4)------------|
|---------------------------------|
|---------------------------------|
|---------------------------------|


Q E. S Q E E E E S S E Q E S S
|-2-----2---------0------0-----|-2-----2------5---5-----|
|-3-----3---------2------2-----|-3-----3------5---5-----|
|-2-----2---------2------2-----|-2-----2------4---4---4-|
|------------------------------|-0------------2-----2---|
|-2------------2--4--------4---|------------------------|
|------------------------------|--------------0---------|
|
| E S S S S S S +S S E E S S E E E E +Q. E
|------------------------------|-2----------------------|
|-------7--5-3-5-(5)-----------|---5---3---5-(5)--------|
|--------------------4-2-----2-|------------------------|
|-----7------------------------|------------------------|
|------------------------------|------------------------|
|------------------------------|------------------------|
|
| E S S S S S S +S S E E S S E S S E E +Q. E
|-------2----------------------|-2----------------------|
|----------5-3-5-(5)-----------|---5---3---5-(5)--------|
|-----2--------------4-2-----2-|------------------------|
|------------------------------|------------------------|
|------------------------------|------------------------|
|------------------------------|------------------------|


E S S S S E E S S S S S S E S S E E E S S S S E
|--4--------------------------------|---2--------------------------------------|
|--5-----5--------4------------4----|---0--------5---------4----2--------------|
|--4---4-4-13-----4---------4-------|------------1--------------1--------6-----|
|--2-2--------14--4------4----------|----------------------4----4----4-6---4---|
|-------------14--2---2-----------2-|---------2------2-------------4-----------|
|--0-------12-------2---------------|---------------------------2--------------|
|
| H Q S S S S S S S S +S S S S +Q E S S
|-----------------------11-14-14-14-|--14----14-12-(12)---11-9-(9)-------------|
|-----------------------------------|--------------------------------------7-7-|
|-----------------------------------|------------------------------------------|
|-----------------------------------|------------------------------------------|
|-----------------------------------|------------------------------------------|
|-----------------------------------|------------------------------------------|
|
| Gtr IV
| H H +H H
|-19--------------------------------|------------------------------------------|
|----------------16-----------------|-(16)---------------------14--------------|
|-16--------------------------------|------------------------------------------|
|----------------13-----------------|-(13)---------------------11--------------|
|----------------14-----------------|-(14)---------------------13--------------|
|----------------14-----------------|-(14)-------------------------------------|


E S S E E E. S S S S S
|-----------------------------------------|
|---7------5-------4----------------------|
|---3-------------------4---------4-------|
|-------4--6-------4----6------6----------|
|--------------4-----------6--------6-----|
|-----------------------4-----------------|
|
| E S S +E S S Q +S S E
|--14--14-12-(12)-11----------------------|
|----------------------12----(12)---------|
|-----------------------------------------|
|-----------------------------------------|
|-----------------------------------------|
|-----------------------------------------|
|
| +H H
|----------------------11-----------------|
|-(14)------------------0-----------------|
|-----------------------------------------|
|-(11)-----------------13-----------------|
|-(13)-----------------11-----------------|
|-----------------------------------------|


S S E +S E S E S S S S S S
|-----------------------------------------|
|--------4--(4)-------------------------2-|
|--4--6--4--(4)-------4--------------4----|
|--4--4--4--(4)-4-----4----2---4--6-------|
|------------------------2----------------|
|--4--6--7--(7)-------0-------------------|
|
| S S E +S E S E E +S S S S
|-----------------------------------------|
|-12-14-16-(16)---------------------14-12-|
|-----------------------16---(16)---------|
|-----------------16-18-------------------|
|-----------------------------------------|
|-----------------------------------------|
|
| H H
|--------------------12-------------------|
|-----------------------------------------|
|---------------------9-------------------|
|-----------------------------------------|
|--9-----------------11-------------------|
|-----------------------------------------|


E S S E S S E S S S S S S
|-------------------------------------|
|--2------2-------4----------2--4-----|
|--4------3-------4-------4-----------|
|--4---4--4--4----4----4--------------|
|----4---------------2-------------2--|
|--2--------------7-------------------|
|
| E S S +E S S +E E S S S S
|-11-9-9-(9)-7-7-(7)-----11-14-14-14--|
|-------------------------------------|
|-------------------------------------|
|-------------------------------------|
|-------------------------------------|
|-------------------------------------|
|
| Q Q H
|-14----------------------------------|
|--0-------------16-------------------|
|-------------------------------------|
|-11-------------13-------------------|
|--------13------14-------------------|
|-14-------------14-------------------|


S S S S E S S E S S S S S S
|---2--------------------------------------|
|---0--------5---------4----2--------------|
|------------1-------------------------6---|
|----------------------4----4----4-6-8---4-|
|---------2------2-------------4-----------|
|---------------------------2--------------|
|
| S S S S +S S S S +Q E S S
|--14----14-12-(12)---11-9-(9)-------------|
|--------------------------------------7-7-|
|------------------------------------------|
|------------------------------------------|
|------------------------------------------|
|------------------------------------------|
|
| +H H
|------------------------------------------|
|-(16)---------------------14--------------|
|------------------------------------------|
|-(13)---------------------11--------------|
|-(14)---------------------13--------------|
|-(14)---------------------14--------------|


E S S E E E. S S S S S
|---2--------------------------------|
|----------5-------4-----------------|
|---3-------------------4------------|
|----------6-------4----6----6-8-9---|
|-------4------4-----------6---------|
|---2-------------------4------------|
|
| E S S +E S S H
|--14--14-12-(12)-11-----------------|
|----------------------12------------|
|------------------------------------|
|------------------------------------|
|------------------------------------|
|------------------------------------|
|
| +H H
|----------------------11------------|
|-(14)------------------0------------|
|------------------------------------|
|-(11)-----------------13------------|
|-(13)-----------------11------------|
|-(14)-------------------------------|


S S E +S S S S E S S S S S S
|-----------------2-----0-------------------|
|--------4--(4)---------0-----------------4-|
|--4--6--4--(4)---------1--------------4----|
|--4--4--4--(4)-4-------2----2---4--6-------|
|--------------------------2----------------|
|--4--6--7--(7)---------0-------------------|
|
| S S E +S E S E E +S S S S
|-12----------------------------------------|
|----14-16-(16)-----------------------14-12-|
|-------------------------16---(16)---------|
|-------------------16-18-------------------|
|-------------------------------------------|
|-------------------------------------------|
|
| H H
|----------------------12-------------------|
|-------------------------------------------|
|-----------------------9-------------------|
|-------------------------------------------|
|--9-------------------11-------------------|
|-------------------------------------------|


Q Q Q S S S S S S E Q H
|---------------------------2-|-----------------------------|
|--4------2-------4-------2---|---4-------------------------|
|--4------3-------6-----------|---4-------------------------|
|--4------4-------4-----4-----|---4-------------------------|
|---------4-------------------|-----------------------------|
|--2--------------------------|-----------------------------|
|
| Gtr VI
| E S S +E S S +H H S S S S S S S S
|-11-9-9-(9)-7-7-(7)----------|-----------------------------|
|-----------------------------|-----------------------------|
|-----------------------------|-----------------------------|
|-----------------------------|-------------2---2-2-2---2-2-|
|-----------------------------|-------------0---0-0-0---0-0-|
|-----------------------------|-----------------------------|
|
| Q Q H +Q Q H
|-14--------------------------|-----------------------------|
|--0--------------------------|-----------------------------|
|----------------16-----------|-(16)------------------------|
|-11-------------13-----------|-(13)------------------------|
|--------13------14-----------|-(14)------------------------|
|-14--------------------------|-----------------------------|


Gtr II
E S S +E S S +E E +S S E Q S S E H
|-9---7-7-(7)---5-7-(7)-----------------|---------5-7-5-------------------|
|-------------------------5---(5)-------|---------------------------------|
|---------------------------------------|---------------------------------|
|---------------------------------------|---------------------------------|
|---------------------------------------|---------------------------------|
|---------------------------------------|---------------------------------|
|
| Gtr III
| W Q S S E H
|---------------------------------------|---------------------------------|
|---------------------------------------|---------------------------------|
|---------------------------------------|---------------------------------|
|---------------------------------------|---------4-6-4-------------------|
|---------------------------------------|---------------------------------|
|---------------------------------------|---------------------------------|
|
| Gtr VI
| S S S S S S S S S S S S S S S S S S S S S S S S S S S S S S S S
|---------------------------------------|---------------------------------|
|---------------------------------------|---------------------------------|
|---------------------------------------|---------------------------------|
|---2-2----2----2-2--2----2-2--2------2-|---2-2---2---2---4---4---4---4-4-|
|---0-0----0----0-0--2----2-2--2----2-2-|---2-2---2---2---4-----4-4---4-4-|
|---------------------------------------|---------------------------------|


E S S +E S S +S E. E S S E S S +S S E Q E S S
|-9---7-7-(7)---5-------5----------5-7-|-9---7-7-(7)-5-5---------------9-9-|
|-----------------3-(3)----------------|-----------------------------------|
|--------------------------------------|-----------------------------------|
|--------------------------------------|-----------------------------------|
|--------------------------------------|-----------------------------------|
|--------------------------------------|-----------------------------------|
|
| W H Q E S S
|--------------------------------------|-----------------------------------|
|--------------------------------------|-------------------------------5-5-|
|--------------------------------------|-----------------------------------|
|--------------------------------------|-----------------------------------|
|--------------------------------------|-----------------------------------|
|--------------------------------------|-----------------------------------|
|
| S S S S S S S S S S S S S S S S S S S S S S S S S S S S S S S S
|--------------------------------------|-----------------------------------|
|--------------------------------------|-----------------------------------|
|--------------------------------------|-----------------------------------|
|---4-4----4----4-4--------------------|-----------------------------------|
|---4-4----4----4-4--5-----5-5-5---5-7-|---7-7----7----7-7-7---7-7-7---7-7-|
|--------------------5-----5-5-5---5-7-|---7-7----7----7-7-5---5-5-5---5-5-|


E S S +E S S +E S S +E E Q S S E Q E S S
|-9---7-7-(7)---5-7-(7)-----------------|------------------------------9-9-|
|-------------------------5-5-(5)-------|---------7-9-10-------------------|
|---------------------------------------|----------------------------------|
|---------------------------------------|----------------------------------|
|---------------------------------------|----------------------------------|
|---------------------------------------|----------------------------------|
|
| E S S +E S S +E S S +E E W
|---------------------------------------|----------------------------------|
|-5---3-3-(3)---5-5-(5)-----------------|----------------------------------|
|-------------------------4-4-(4)-------|----------------------------------|
|---------------------------------------|----------------------------------|
|---------------------------------------|----------------------------------|
|---------------------------------------|----------------------------------|
|
| S S S S S S S S S S S S S S S S S S S S S S S S S S S S S S S S
|---------------------------------------|----------------------------------|
|---------------------------------------|----------------------------------|
|---------------------------------------|----------------------------------|
|---------------------------------------|----------------------------------|
|---7-7----7--7-7----7----7-7--7----7-7-|---7-7---7-7--7---9---9-9-9---9-9-|
|---5-5----5--5-5----7----7-7--7----7-7-|---7-7---7-7--7---9---9-9-9---9-9-|


S S S S +E S S +E S S +E. S +Q S S E Q E S S
|-9---7-7-(7)-5-10-(10)-----------9-|-(9)--7-5-5--------10-9-10-|
|-------------------------10-(10)---|---------------------------|
|-----------------------------------|---------------------------|
|-----------------------------------|---------------------------|
|-----------------------------------|---------------------------|
|-----------------------------------|---------------------------|
|
| W H E S S E S S
|-----------------------------------|---------------------------|
|-----------------------------------|---------------------------|
|-----------------------------------|-----------------2--4-2--4-|
|-----------------------------------|---------------------------|
|-----------------------------------|---------------------------|
|-----------------------------------|---------------------------|
|
| Gtr IV
| W H H
|-----------------------------------|---------------------------|
|-----------------------------------|---------------------------|
|-----------------------------------|---------------------------|
|-----------------------------------|---------------------------|
|-----------------------------------|------------12-------------|
|-----------------------------------|---------------------------|


+S E S Q H H Q S S S S
|-(10)-12------------------------|--------------------17-17----17-|
|--------------------------------|--------------------------19----|
|--------------------------------|--------------------------------|
|--------------------------------|--------------------------------|
|--------------------------------|--------------------------------|
|--------------------------------|--------------------------------|
|
| +S E S E S S E S S +S S E +S S E Q E S S S S S S
|--------------------------------|---------------------2----------|
|-------2----------2-------------|------------------------5--3--5-|
|--(4)----------2----4-4-(4)-2-4-|--(4)-------------2-------------|
|--------------------------------|--------------------------------|
|--------------------------------|--------------------------------|
|--------------------------------|--------------------------------|
|
| H H +H H
|--------------------------------|--------------------------------|
|--------------------------------|-------------10-----------------|
|--------------------------------|--------------------------------|
|--------------------------------|--------------------------------|
|--14-------------12-------------|-(12)---------------------------|
|--------------------------------|--------------------------------|


+S S E Q Q E S S E S S E S S +S S E +Q
|-(17)----------------------17---|-17--16---16-14-16-(16)-14-12-(12)--|
|------19-17---------------------|------------------------------------|
|--------------------------------|------------------------------------|
|--------------------------------|------------------------------------|
|--------------------------------|------------------------------------|
|--------------------------------|------------------------------------|
|
| +S S E E S S E S S E E +Q. E H
|-------------------2------------|------------------------------------|
|--(5)----------------5---3--5---|-(5)--------------------------------|
|-------4--2-----2---------------|------------------------------------|
|--------------------------------|------------------------------------|
|--------------------------------|------------------------------------|
|--------------------------------|------------------------------------|
|
| H H H H
|--------------------------------|-17-----------------19--------------|
|--12--------------10------------|------------------------------------|
|--------------------------------|--------------------16--------------|
|--------------------------------|------------------------------------|
|--------------------------------|------------------------------------|
|--------------------------------|------------------------------------|


Gtr I
E S S S S S S E S S E E
|---------------------2---------------------|
|--4------------4-----0-------5---------4---|
|--4---------4----------------1-------------|
|--4------4-----------------------------4---|
|------2-----------2-------2------2---------|
|--7-2--------------------------------------|
|
| Gtr II
| Q S S S S S S S S +S S S S
|--------11-14-14-14-14---14-12-(12)---11-9-|
|-------------------------------------------|
|-------------------------------------------|
|-------------------------------------------|
|-------------------------------------------|
|-------------------------------------------|
|
| W
|-------------------------------------------|
|-16----------------------------------------|
|-------------------------------------------|
|-13----------------------------------------|
|-14----------------------------------------|
|-14----------------------------------------|


E S S S S E E S S E E E. S S S S S S S E +S E S
|------------------------------------|---------------------------------------|
|--2---------------7-----5-------4---|-------------------------4--(4)--------|
|--1--------6------3-----------------|--4---------4------4--6--4--(4)--------|
|--4----4-6---4-------4--6-------4---|--6------6---------4--4--4--(4)-4------|
|-----4----------------------4-------|-----6--------6------------------------|
|--2---------------------------------|--4----------------4--6--7--(7)--------|
|
| +Q E S S E S S +E S S Q +S S E S S E +S E S
|-(9)-------------14-14-12-(12)-11---|---------------------------------------|
|-------------7-7--------------------|-12----(12)-------12-14-16-(16)--------|
|------------------------------------|---------------------------------------|
|------------------------------------|----------------------------------16---|
|------------------------------------|---------------------------------------|
|------------------------------------|---------------------------------------|
|
| W H H
|------------------------------------|-11------------------------------------|
|-14---------------------------------|--0------------------------------------|
|------------------------------------|---------------------------------------|
|-11---------------------------------|-13------------------------------------|
|-13---------------------------------|-11----------------9-------------------|
|------------------------------------|---------------------------------------|


E S S S S S S E S S E S S
|-------------------------------------|
|--------------------2--2------2------|
|--4--------------4-----4------3------|
|--4----2---4--6--------4---4--4--4---|
|-----2-------------------4-----------|
|--0--------------------2-------------|
|
| E E +S S S S E S S +E S S
|----------------------11-9-9-(9)-7-7-|
|----------------14-12----------------|
|----16---(16)------------------------|
|-18----------------------------------|
|-------------------------------------|
|-------------------------------------|
|
| H Q Q
|-12-------------------14-------------|
|-----------------------0-------------|
|--9----------------------------------|
|----------------------11-------------|
|-11--------------------------13------|
|----------------------14-------------|


E S S S S S S S S S S E S S
|----------------------2---------------------|
|--4----------2--4-----0-------5---------4---|
|--4-------4-------------------1-------------|
|--4----4--------------------------------4---|
|-----2-------------2-------2------2---------|
|--7-----------------------------------------|
|
| +E E S S S S S S S S +S S S S
|-(7)-----11-14-14-14-14---14-12-(12)---11-9-|
|--------------------------------------------|
|--------------------------------------------|
|--------------------------------------------|
|--------------------------------------------|
|--------------------------------------------|
|
| W
|--------------------------------------------|
|-16-----------------------------------------|
|--------------------------------------------|
|-13-----------------------------------------|
|-14-----------------------------------------|
|-14-----------------------------------------|


E S S S S S S E S S E E E. S S S S S S S E +S S S S
|------------------2-----------------|----------------------------------2----|
|--2---------------------5-------4---|-------------------------4--(4)--------|
|-------------6----3-----------------|--4----------------4--6--4--(4)--------|
|--4----4-6-8---4--------6-------4---|--6------6--8-9----4--4--4--(4)-4------|
|-----4---------------4------4-------|-----6---------------------------------|
|--2---------------2-----------------|--4----------------4--6--7--(7)--------|
|
| +Q E S S E S S +E S S Q +S S E S S E +S E S
|-(9)-------------14-14-12-(12)-11---|---------------------------------------|
|-------------7-7--------------------|-12----(12)-------12-14-16-(16)--------|
|------------------------------------|---------------------------------------|
|------------------------------------|------------------------------------16-|
|------------------------------------|---------------------------------------|
|------------------------------------|---------------------------------------|
|
| W H H
|------------------------------------|-11------------------------------------|
|-14---------------------------------|--0------------------------------------|
|------------------------------------|---------------------------------------|
|-11---------------------------------|-13------------------------------------|
|-13---------------------------------|-11----------------9-------------------|
|-14---------------------------------|---------------------------------------|


E S S S S S S Q Q
|--0----------------------------------|
|--0-----------------4--4------2------|
|--1--------------4-----4------3------|
|--2----2---4--6--------4------4------|
|-----2------------------------4------|
|--0--------------------2-------------|
|
| E E +S S S S E S S +E S S
|----------------------11-9-9-(9)-7-7-|
|----------------14-12----------------|
|----16---(16)------------------------|
|-18----------------------------------|
|-------------------------------------|
|-------------------------------------|
|
| H Q Q
|-12-------------------14-------------|
|-----------------------0-------------|
|--9----------------------------------|
|----------------------11-------------|
|-11--------------------------13------|
|----------------------14-------------|


Gtr II
+Q E S S +S S E +E E S S E +E S S +S S E +E E
|-(7)----------------------|--7-11-11-(11)-12-12-(12)-14-----------|
|--------------------------|-----------------------------16-(16)---|
|------7-6-6-(6)-4-4-(4)---|---------------------------------------|
|--------------------------|---------------------------------------|
|--------------------------|---------------------------------------|
|--------------------------|---------------------------------------|
|
| Gtr III
| Q E S S +S S E +E E S S E +E S S +S S E +E E
|--------------------------|---------------------------------------|
|------3-2-2-(2)-----------|----------------2--2--(2)--4-----------|
|----------------4-4-(4)---|-----4--4--(4)----------------4--(4)---|
|--------------------------|--4------------------------------------|
|--------------------------|---------------------------------------|
|--------------------------|---------------------------------------|
|
| H. Q W
|-15-----------------17----|---------------------------------------|
|--0-----------------------|---------------------------------------|
|--0-----------------14----|-16------------------------------------|
|-17-----------------------|-13------------------------------------|
|-17-----------------------|---------------------------------------|
|--------------------------|-14------------------------------------|


Q E S S +S S S S +E E S S S S +S S S S Q E S S
|------------------------------------|-14---14-14-(14)----16---14------14-|
|------------------------------------|-----------------16-----------------|
|------------------------------------|------------------------------------|
|------------------------------------|------------------------------------|
|------17-16-16-(16)-14-14-14-(14)---|------------------------------------|
|------------------------------------|------------------------------------|
|
| Q E S S +S S S S +E E S S S S +S S S S Q E S S
|------------------------------------|------------------------------------|
|-------3--2--2--(2)-----------------|--2----2--2--(2)-----4----2-------2-|
|---------------------4--4--4--(4)---|------------------4------------4----|
|------------------------------------|------------------------------------|
|------------------------------------|------------------------------------|
|------------------------------------|------------------------------------|
|
| H. Q W
|-15---------------------------17----|-14---------------------------------|
|------------------------------------|------------------------------------|
|-12---------------------------14----|-11---------------------------------|
|-12---------------------------------|-11---------------------------------|
|------------------------------------|-13---------------------------------|
|-15---------------------------------|-14---------------------------------|


S S S S +S S S S E E Q Q S S S S S S S S +S S S S
|-16---16-16-(16)----18---16------|-------16-16-16-16---16-14-(14)---13-11-|
|-----------------18--------------|----18----------------------------------|
|---------------------------------|----------------------------------------|
|---------------------------------|----------------------------------------|
|---------------------------------|----------------------------------------|
|---------------------------------|----------------------------------------|
|
| S S S S +S S S S E E Q W
|---------------------1-----------|----------------------------------------|
|--4----4--4--(4)--2-------4------|----------------------------------------|
|---------------------------------|----------------------------------------|
|---------------------------------|----------------------------------------|
|---------------------------------|----------------------------------------|
|---------------------------------|----------------------------------------|
|
| H H W
|-16------------------------------|----------------------------------------|
|---------------------------------|----------------------------------------|
|-13------------------------------|----------------------------------------|
|-13------------------------------|----------------------------------------|
|-15------------------------------|----------------------------------------|
|-16------------------------------|----------------------------------------|


+Q E S S E S S +E S S
|-(11)-------------16-16-14-(14)-13---|
|--------------9-9--------------------|
|-------------------------------------|
|-------------------------------------|
|-------------------------------------|
|-------------------------------------|
|
| Gtr I
| E S S S S E E S S E E
|-------------------------------------|
|------------4------9-----7-------6---|
|--------1-3--------5-----------------|
|------1-------6-------6--8-------6---|
|-----------------------------6-------|
|-------------------------------------|
|
| W
|-------------------------------------|
|--16---------------------------------|
|-------------------------------------|
|--13---------------------------------|
|--15---------------------------------|
|-------------------------------------|


Gtr I
E. S S S S S S S E +S E S E S S S S S S E S S E S S
|-------------------------------------|----------------------------------------|
|-------------------------6--(6)------|--2-----------------4--4---------4------|
|--6---------6------6--8--6--(6)------|--1--------------6-----6---------5------|
|--8------8---------6--6--6--(6)-6----|-------4---6--8--------6-----6---6--6---|
|-----8--------8----------------------|-----4--------------------6-------------|
|--6----------------6--8--9--(9)------|--2--------------------4----------------|
|
| Gtr II
| Q +S S E S S E +S E S E E +S S S S E S S +E S S
|-------------------------------------|----------------------13-11-11-(11)-9-9-|
|-14----(14)-------14-16-18-(18)------|----------------16-14-------------------|
|-------------------------------------|----18---(18)---------------------------|
|----------------------------------18-|-20-------------------------------------|
|-------------------------------------|----------------------------------------|
|-------------------------------------|----------------------------------------|
|
| H H H Q Q
|-------------------------------------|----------------------16----------------|
|-18----------------------------------|-19-------------------------------------|
|-------------------------------------|----------------------------------------|
|-15----------------------------------|-16-------------------13----------------|
|-16----------------------------------|----------------------16--------15------|
|-18---------------16-----------------|-18-------------------16----------------|


E S S S S S S S S S S E S S
|----------------------4----------------------|
|--6----------4--6-----2-------7---------6----|
|--6-------6-------------------3--------------|
|--6----6--------------------------------6----|
|-----4-------------4-------4------4----------|
|--9------------------------------------------|
|
| +E E S S S S S S S S +S S S S
|-(9)-----13-16-16-16-16---16-14-(14)---13-11-|
|---------------------------------------------|
|---------------------------------------------|
|---------------------------------------------|
|---------------------------------------------|
|---------------------------------------------|
|
| W
|---------------------------------------------|
|-18------------------------------------------|
|---------------------------------------------|
|-15------------------------------------------|
|-16------------------------------------------|
|-16------------------------------------------|


E S S S S S S E S S E E
|--------------------4-----------------|
|---4----------------------7-------6---|
|---------------8----5-----------------|
|---6----6-8-10---6--------8-------6---|
|------6----------------6------6-------|
|---4----------------4-----------------|
|
| +Q E S S E S S +E S S
|-(11)--------------16-16-14-(14)-13---|
|---------------9-9--------------------|
|--------------------------------------|
|--------------------------------------|
|--------------------------------------|
|--------------------------------------|
|
| W
|--------------------------------------|
|--16----------------------------------|
|--------------------------------------|
|--13----------------------------------|
|--15----------------------------------|
|--16----------------------------------|


E. S S S S S S S E +S S S S E S S S S S S Q Q
|------------------------------------4----|--2-------------------------------------|
|---------------------------6--(6)--------|--2-----------------6--6---------4------|
|--6------------------6--8--6--(6)--------|--3--------------6-----6---------5------|
|--8------8--10-11----6--6--6--(6)-6------|--4----4---6--8--------6---------6------|
|-----8-----------------------------------|-----4---------------------------6------|
|--6------------------6--8--9--(9)--------|--2--------------------4----------------|
|
| Q +S S E S S E +S E S E E +S S S S E S S +E S S
|-----------------------------------------|----------------------13-11-11-(11)-9-9-|
|-14----(14)---------14-16-18-(18)--------|----------------16-14-------------------|
|-----------------------------------------|----18---(18)---------------------------|
|--------------------------------------18-|-20-------------------------------------|
|-----------------------------------------|----------------------------------------|
|-----------------------------------------|----------------------------------------|
|
| H H H Q Q
|-----------------------------------------|----------------------16----------------|
|-18--------------------------------------|-19-------------------------------------|
|-----------------------------------------|----------------------------------------|
|-15--------------------------------------|-16-------------------13----------------|
|-16--------------------------------------|----------------------16--------15------|
|-18-----------------16-------------------|-18-------------------16----------------|


E S S S S S S E S S E E
|----------------------4-----------------------|
|--6-------------6-----2-------7---------6-----|
|--6----------6----------------3---------------|
|--6-------6-----------------------------6-----|
|--4----4-----------4-------4------4-----------|
|-----4----------------------------------------|
|
| +Q S S S S S S S S +S S S S
|-(9)-----13-16-16-16-16---16-14-(14)---13-11--|
|----------------------------------------------|
|----------------------------------------------|
|----------------------------------------------|
|----------------------------------------------|
|----------------------------------------------|
|
| W
|----------------------------------------------|
|-18-------------------------------------------|
|----------------------------------------------|
|-15-------------------------------------------|
|-16-------------------------------------------|
|-16-------------------------------------------|


E S S S S E E S S E E E. S S S S S S S E +S E S
|-------------------------------------|-------------------------------------|
|---4--------4------9-----7-------6---|-------------------------6--(6)------|
|---3----1-3--------5-----------------|--6---------6------6--8--6--(6)------|
|---6--1-------6-------6--8-------6---|--8------8---------6--6--6--(6)-6----|
|-----------------------------6-------|-----8--------8----------------------|
|---4---------------------------------|--6----------------6--8--9--(9)------|
|
| +Q E S S E S S +E S S Q +S S E S S E +S E S
|-(11)-------------16-16-14-(14)-13---|-------------------------------------|
|--------------9-9--------------------|-14----(14)-------14-16-18-(18)------|
|-------------------------------------|-------------------------------------|
|-------------------------------------|----------------------------------18-|
|-------------------------------------|-------------------------------------|
|-------------------------------------|-------------------------------------|
|
| W H H
|-------------------------------------|-------------------------------------|
|--16---------------------------------|-18----------------------------------|
|-------------------------------------|-------------------------------------|
|--13---------------------------------|-15----------------------------------|
|--15---------------------------------|-16----------------------------------|
|-------------------------------------|-18---------------16-----------------|


E S S S S S S E S S E S S
|-----------------------------------------|
|--2-----------------4--4---------4-------|
|--1--------------6-----6---------5-------|
|-------4---6--8--------6-----6---6--6----|
|-----4--------------------6--------------|
|--2--------------------4-----------------|
|
| E E +S S S S E S S +E S S
|----------------------13-11-11-(11)-9-9--|
|----------------16-14--------------------|
|----18---(18)----------------------------|
|-20--------------------------------------|
|-----------------------------------------|
|-----------------------------------------|
|
| H Q Q
|----------------------16-----------------|
|-19--------------------------------------|
|-----------------------------------------|
|-16-------------------13-----------------|
|----------------------16--------15-------|
|-18-------------------16-----------------|


E E Q E E E E E S S S S S S E S S E E
|------------1----2---|----------------4---------|
|--6-----7---2----2---|--4-------1-4-------7---6-|
|--6-----8---1----3---|--1---1-3-------5---------|
|--6-----8---3----4---|----1---------6-----8---6-|
|--------6------------|------------------6---6---|
|--9---------1----2---|--4-------------4---------|
|
| +W W
|-(9)-----------------|--------------------------|
|---------------------|--------------------------|
|---------------------|--------------------------|
|---------------------|--------------------------|
|---------------------|--------------------------|
|---------------------|--------------------------|
|
| Q Q Q Q W
|---------------------|--------------------------|
|-18----19--18---19---|-16-----------------------|
|---------------------|--------------------------|
|-15----16--15---16---|-13-----------------------|
|-16----18--16---16---|-15-----------------------|
|-16----18--16---18---|-16-----------------------|


E. S S S S S S S E +S S S S
|---------------------------------4----|
|------------------------6--(6)--------|
|--6---------------6--8--6--(6)--------|
|--8----8-10-11----6--6--6--(6)-6------|
|-----8--------------------------------|
|--6---------------6--8--9--(9)--------|
|
| H S S E +S E S
|--------------------------------------|
|--------------------------------------|
|--------------------------------------|
|-----------------11-13-11-(11)-----11-|
|--------------------------------------|
|--------------------------------------|
|
| H H
|--------------------------------------|
|-18-----------------------------------|
|--------------------------------------|
|-15-----------------------------------|
|-16-----------------------------------|
|-18--------------16-------------------|


E S S S S S S Q Q
|--2------------------------------------------|
|--2---------------6--6-----------4-----------|
|--3-------------6----6-----------5-----------|
|--4----4---6--8------6-----------6-----------|
|-----4---------------------------6-----------|
|--2------------------4-----------------------|
|
| E E +S S S S S S S S +S S S S
|----------------9-9-16---16-16-(16)----16----|
|------------------------------------18----18-|
|---------------------------------------------|
|-11-11---(11)--------------------------------|
|---------------------------------------------|
|---------------------------------------------|
|
| H Q Q
|--------------------16-----------------------|
|-19------------------------------------------|
|---------------------------------------------|
|-16-----------------13-----------------------|
|--------------------16----------15-----------|
|-18-----------------16-----------------------|


E S S S S S S S S S S E S S
|---------------------4------------------|
|---6-----------4-6---2-----7-------6----|
|---6--------6--------------3------------|
|---6----6--------------------------6----|
|---4--4------------4-----4----4---------|
|----------------------------------------|
|
| +Q +S S E Q S S E
|----------------------------------------|
|-(18)-----(18)--------------------------|
|----------------------------------------|
|----------------------------------------|
|-----------------------------20---20----|
|----------------------------------------|
|
| W
|----------------------------------------|
|--18------------------------------------|
|----------------------------------------|
|--15------------------------------------|
|--16------------------------------------|
|--16------------------------------------|


E S S S S S S E S S E E E. S S S S S S S E +S S S S
|---------------------4----------------------|----------------------------------4----|
|--4--------------------------7---------6----|-------------------------6-(6)---------|
|----------------8----5----------------------|--6------------------6-8-6-(6)---------|
|--6-----6--8-10----6---------8---------6----|--8------8--10-11----6-6-6-(6)-6-------|
|-----6--------------------6------6----------|-----8---------------------------------|
|--4------------------4----------------------|--6------------------6-8-9-(9)---------|
|
| E. S S S S S S S S S +S S S S Q +S S E Q E S S
|--------------------------------------------|---------------------------------------|
|----------------------------18-(18)-19---19-|-18----(18)----------------------18-19-|
|----------20-20---20---20-------------------|---------------------------------------|
|--------------------------------------------|---------------------------------------|
|-18-----------------------------------------|---------------------------------------|
|-------20-----------------------------------|---------------------------------------|
|
| W H H
|--------------------------------------------|---------------------------------------|
|-16-----------------------------------------|-18------------------------------------|
|--------------------------------------------|---------------------------------------|
|-13-----------------------------------------|-15------------------------------------|
|-15-----------------------------------------|-16------------------------------------|
|-16-----------------------------------------|-18-----------------16-----------------|


E S S S S S S Q Q
|--2----------------------------------------------|
|--2-------------------6--6---------4-------------|
|--3----------------6-----6---------5-------------|
|--4-------4---6--8-------6---------6-------------|
|--------4--------------------------6-------------|
|--2----------------------4-----------------------|
|
| S E. +S E S E S S +S S S S
|-------------------------------------------------|
|----19------(19)-----19-21-21-21-(21)----21------|
|--------------------------------------22----22---|
|-------------------------------------------------|
|-------------------------------------------------|
|-------------------------------------------------|
|
| H Q Q
|------------------------16-----------------------|
|-19----------------------------------------------|
|-------------------------------------------------|
|-16---------------------13-----------------------|
|------------------------16--------15-------------|
|-18---------------------16-----------------------|


E S S S S S S S S S S E S S
|-----------------------4----------------------|
|---6----------4--6-----2-------7---------6----|
|---6-------6-------------------3--------------|
|---6----6--------------------------------6----|
|---4--4-------------4-------4------4----------|
|----------------------------------------------|
|
| +Q S S S S S S S S +S S S S
|----------------------------------------------|
|----------------------------------------------|
|-(22)-----------------------------------------|
|-------------18-18-18-18---18-16-(16)---15-13-|
|----------20----------------------------------|
|----------------------------------------------|
|
| Gtr III
| Q S S S S S S S S +S S S S
|--------------4--4--4--4----4--2--(2)----1----|
|-----------6--------------------------------4-|
|----------------------------------------------|
|----------------------------------------------|
|----------------------------------------------|
|----------------------------------------------|


E S S S S S S E S S E E
|---------------------4-------------|
|---4---------------------7-----6---|
|----------------8----5-------------|
|---6----6-8-10-----6-----8-----6---|
|------6----------------6----6------|
|---4-----------------4-------------|
|
| +Q E S S E S S +E S S
|-----------------------------------|
|---------------------9-9-7-(7)-6---|
|-----------------------------------|
|-(13)------------------------------|
|---------------11-11---------------|
|-----------------------------------|
|
| +Q E S S E S S +E S S
|---------------------4-4-2-(2)-1---|
|--(4)------------------------------|
|-----------------------------------|
|----------------6--6---------------|
|-----------------------------------|
|-----------------------------------|


E. S S S S S S S E +S S S S E S S S S S S Q Q
|------------------------------4---|-2------------------------------|
|----------------------6-(6)-------|-2-------------6-6------4-------|
|-6----------------6-8-6-(6)-------|-3-----------6---6------5-------|
|-8-----8--10-11---6-6-6-(6)-6-----|-4---4--6--8-----6------6-------|
|----8-----------------------------|---4--------------------6-------|
|-6----------------6-8-9-(9)-------|-2---------------4--------------|
|
| Q +S S E S S E +S E S E E +S S S S E S S +E S S
|----------------------------------|-----------------1--------------|
|--------------------4-6-(6)-------|-------------4-2---4-4-(4)-2-2--|
|-6----(6)---------6---------------|---6---(6)----------------------|
|--------------------------------6-|-8------------------------------|
|----------------------------------|--------------------------------|
|----------------------------------|--------------------------------|
|
| Gtrs III, V Gtr III
| Q +S S E S S E +S E S E E +S S S S E S S +E S S
|----------------------------------|-----------------1--------------|
|-2----(2)---------2-4-6-(6)-------|-------------4-2---4-4-(4)-2-2--|
|----------------------------------|---6---(6)----------------------|
|--------------------------------6-|-8------------------------------|
|----------------------------------|--------------------------------|
|----------------------------------|--------------------------------|


E S S S S S S S S S S E S S
|----------------------4----------------------|
|--6----------4--6-----2-------7---------6----|
|--6-------6-------------------3--------------|
|--6----6--------------------------------6----|
|--4--4-------------4-------4------4----------|
|---------------------------------------------|
|
| +Q S S S S S S S S +S S S S
|---------13-16-16-16-16---16-14-(14)---18-16-|
|-(2)-----------------------------------------|
|---------------------------------------------|
|---------------------------------------------|
|---------------------------------------------|
|---------------------------------------------|
|
| +H H
|---------------------------------------------|
|-(2)-----------------------------------------|
|---------------------------------------------|
|---------------------------------------------|
|---------------------------------------------|
|---------------------------------------------|


E S S S S S S E S S E E
|----------------------------------------|
|---4------------------6-----7-------6---|
|----------------8-----5-----------------|
|---6----6-8-10-----6--------7-------7---|
|------6------------------6------6-------|
|---4------------------5-----------------|
|
| +Q E S S E S S +E S S
|-(16)----------------16-16-14-(14)-13---|
|----------------------------------------|
|----------------------------------------|
|---------------18-18--------------------|
|----------------------------------------|
|----------------------------------------|
|
| W
|----------------------------------------|
|----------------------------------------|
|----------------------------------------|
|----------------------------------------|
|----------------------------------------|
|----------------------------------------|


E. S S S S S S S E +S S S S
|----------------------------------4---|
|--------------------------6-(6)-------|
|--6------------------6--8-6-(6)-------|
|--8------8--10-11----6--6-6-(6)-6-----|
|-----8--------------------------------|
|--6------------------6--8-9-(9)-------|
|
| Q +S S E S S E +S E S
|--------------------13-11-9-(9)-------|
|-14----(14)-------------------------9-|
|--------------------------------------|
|--------------------------------------|
|--------------------------------------|
|--------------------------------------|
|
| Gtr IV
| H H
|--------------------------------------|
|-18-----------------------------------|
|--------------------------------------|
|-15-----------------------------------|
|-16-----------------------------------|
|-18-----------------16----------------|


E S S S S S S Q Q W
|--2----------------------------------|-------------*|
|--2--------------6--6---------4------|-------------*|
|--3------------6----6---------5------|-------------*|
|--4---4--6--8-------6---------6------|-------------*|
|----4-------------------------6------|-------------*|
|--2-----------------4----------------|-------------*|
|
| E E +S S S S E S S +E S S +H H
|----9---(9)---11-9-13-11-11-(11)-9-9-|-(9)---------*|
|-11----------------------------------|-------------*|
|-------------------------------------|-------------*|
|-------------------------------------|-------------*|
|-------------------------------------|-------------*|
|-------------------------------------|-------------*|
|
| H Q Q W
|-------------------16----------------|-------------*|
|-19----------------------------------|-------------*|
|-------------------------------------|-------------*|
|-16----------------13----------------|-------------*|
|-------------------16--------15------|-------------*|
|-18----------------16----------------|-------------*|


Duration Legend
---------------
W - whole; H - half; Q - quarter; E - 8th; S - 16th; T - 32nd; X - 64th; a - acciaccatura
+ - note tied to previous; . - note dotted; .. - note double dotted
Uncapitalized letters represent notes that are staccato (1/2 duration)
Irregular groupings are notated above the duration line
Duration letters will always appear directly above the note/fret number it represents the
duration for. Duration letters with no fret number below them represent rests. Multi-
bar rests are notated in the form Wxn, where n is the number of bars to rest for. Low
melody durations appear below the staff

Tablature Legend
----------------
h - hammer-on
p - pull-off
b - bend
pb - pre-bend
r - bend release (if no number after the r, then release immediately)
/ - slide into or out of (from/to "nowhere")
s - legato slide
S - shift slide
- natural harmonic
[n] - artificial harmonic
n(n) - tapped harmonic
~ - vibrato
tr - trill
T - tap
TP - trem. picking
PM - palm muting
n/ - tremolo bar dip; n = amount to dip
n - tremolo bar down
n/ - tremolo bar up
/n - tremolo bar inverted dip
= - hold bend; also acts as connecting device for hammers/pulls
<> - volume swell (louder/softer)
x - on rhythm slash represents muted slash
o - on rhythm slash represents single note slash

Misc Legend
-----------
| - bar
|| - double bar
||o - repeat start
o|| - repeat end
*| - double bar (ending)
: - bar (freetime)
$ - Segno
& - Coda

-----------------------------
|  акорди, навчання, відео  |
|     http://akords.org     |
-----------------------------

 (голосів: 0)
   Інші пісні:
  • Get Down
  • The One
  • Weve Got It Going On
  • The One Bass
  • Get Down Bass
  •  
    Шановний відвідувач, Ви зайшли на сайт як незареєстрований користувач. Ми рекомендуємо Вам реєструватися або зайти на сайт під своїм ім'ям.

    Додавання коментаря

    Ім'я:*
    E-Mail:*
    Коментар:
    Введіть два слова, показані на зображенні: *
     
      

    BLIBL-створити сайт безкоштовно