Зробити стартовою  |  Додати в вибране
 
Пошук по сайту:  
  логін: пароль:  
    Реєстрація на сайті   Нагадати пароль?    

Видавництво Симфонія | Книжкова фабрика

akords.org » B » Backstreet Boys » As Long As You Love Me 2
Знайти необхідні акорди

Backstreet Boys - As Long As You Love Me 2  табулатура

-------------------------------------------------------------------------------
AS LONG AS YOU LOVE ME - Backstreet Boys
-------------------------------------------------------------------------------
Tabbed by: metallhead
Email: homesticky@gmail.com

Tuning: E A D G B E

Gtr I (E A D G B E) - 'Guitar'
Gtr II (E A D G B E) - 'Voice'

Q=97
4/4
Gtr I
Q E S S E E E E +Q. E E E E E
|------1---1-0-----|------------------|
|--------------3-5-|-(5)-----5-6-8----|
|------------------|------------------|
|------------------|---------------10-|
|------------------|------------------|
|------------------|------------------|
|
| Gtr II
| W W
|------------------|------------------|
|------------------|------------------|
|------------------|------------------|
|------------------|------------------|
|------------------|------------------|
|------------------|------------------|


+H +S S E E E +E E E E +E E +E E
|------------------------|--------------------------|
|------------------------|--------------------------|
|------------------------|--------9-7-(7)-5-(5)-----|
|-(10)----(10)--------10-|-(10)---------------------|
|------------------12----|--------------------------|
|------------------------|--------------------------|
|
| W H Q E E
|------------------------|-------------------8--10--|
|------------------------|--------------------------|
|------------------------|--------------------------|
|------------------------|--------------------------|
|------------------------|--------------------------|
|------------------------|--------------------------|


H. Q H. Q
|---------------------------|----------------------|
|--5------------------------|-6--------------------|
|--5------------------------|-5--------------------|
|--7------------------------|-7--------------------|
|---------------------------|----------------------|
|---------------------------|----------------------|
|
| E S S E S S E S S E E E E E E +Q E E
|-12--10---10-8---8-7---7---|------12-10-(10)------|
|-------------------------5-|-6------------------8-|
|---------------------------|----------------------|
|---------------------------|----------------------|
|---------------------------|----------------------|
|---------------------------|----------------------|


H. Q
|---------------------------------------|
|--3------------------------------------|
|--4------------------------------------|
|--5------------------------------------|
|---------------------------------------|
|---------------------------------------|
|
| S S S S S S E +E S S S S E
|-10----10---10---10-(10)-12---13---13--|
|---------------------------------------|
|---------------------------------------|
|---------------------------------------|
|---------------------------------------|
|---------------------------------------|


H. Q H. Q
|-------------------------|---------------------------|
|---5---------------------|--5------------------------|
|---5---------------------|--5------------------------|
|---5---------------------|--7------------------------|
|-------------------------|---------------------------|
|-------------------------|---------------------------|
|
| +E E +Q +E E Q E S S E S S E S S E E
|-(13)-12-(12)--(12)------|-12--10---10-8---8-7---7---|
|-------------------------|-------------------------5-|
|-------------------------|---------------------------|
|-------------------------|---------------------------|
|-------------------------|---------------------------|
|-------------------------|---------------------------|


H. Q
|---------------------------|
|-6-------------------------|
|-5-------------------------|
|-7-------------------------|
|---------------------------|
|---------------------------|
|
| E E E E +E E E S S
|------12-10-(10)-12--------|
|-6-------------------------|
|----------------------12---|
|---------------------------|
|---------------------------|
|---------------------------|


H. Q
|--------------------------------------|
|--3-----------------------------------|
|--4-----------------------------------|
|--5-----------------------------------|
|--------------------------------------|
|--------------------------------------|
|
| S S S S S S E +E S S S S E
|-10----10---10---10-(10)-12---13---13-|
|--------------------------------------|
|--------------------------------------|
|--------------------------------------|
|--------------------------------------|
|--------------------------------------|


H. Q H. Q
|----------------------------|-----------------------------|
|---5------------------------|--5--------------------------|
|---5------------------------|--5--------------------------|
|---5------------------------|--7--------------------------|
|----------------------------|-----------------------------|
|----------------------------|-----------------------------|
|
| +S S E S S E +E E E E E S S E S S E S S E S S
|-(13)---12-10---8-(8)-------|-12--10---10-8---8-7---7-----|
|--------------------------8-|-------------------------5---|
|----------------------------|-----------------------------|
|----------------------------|-----------------------------|
|----------------------------|-----------------------------|
|----------------------------|-----------------------------|


H. Q H. Q
|--------------------------|--------------------------------------|
|-6------------------------|--3-----------------------------------|
|-5------------------------|--4-----------------------------------|
|-7------------------------|--5-----------------------------------|
|--------------------------|--------------------------------------|
|--------------------------|--------------------------------------|
|
| Q E E +E E E S S S S S S S S E +E S S S S E
|-----12-10-(10)-12--------|-10----10---10---10-(10)-12---13---13-|
|-6------------------------|--------------------------------------|
|---------------------12---|--------------------------------------|
|--------------------------|--------------------------------------|
|--------------------------|--------------------------------------|
|--------------------------|--------------------------------------|


H H
|-----------------------------|
|---5---------------3---------|
|---5---------------4---------|
|---5---------------5---------|
|-----------------------------|
|-----------------------------|
|
| +S S E S S E +S S E Q
|-(13)---12-10---8-(8)--------|
|-----------------------------|
|-----------------------------|
|-----------------------------|
|-----------------------------|
|-----------------------------|


H. Q H. Q
|--0------------------------|-1----------------------|
|--1------------------------|-1----------------------|
|--2------------------------|-2----------------------|
|---------------------------|------------------------|
|---------------------------|------------------------|
|---------------------------|------------------------|
|
| E S S E S S E S S E E Q E E +E E E E
|-12--10---10-8---8-7---7---|-----12-10-(10)-12------|
|-------------------------5-|-6----------------------|
|---------------------------|---------------------12-|
|---------------------------|------------------------|
|---------------------------|------------------------|
|---------------------------|------------------------|


H. Q
|--------------------------------|
|--3-----------------------------|
|--4-----------------------------|
|--5-----------------------------|
|--------------------------------|
|--------------------------------|
|
| S S S S S S E +Q S S E
|-10----10---10---10-(10)--8---8-|
|--------------------------------|
|--------------------------------|
|--------------------------------|
|--------------------------------|
|--------------------------------|


H. Q H. Q H. Q
|-------------------|----------------------|------------------------|
|--5----------------|--6-------------------|--5---------------------|
|--5----------------|--5-------------------|--5---------------------|
|--5----------------|--7-------------------|--5---------------------|
|-------------------|----------------------|------------------------|
|-------------------|----------------------|------------------------|
|
| +Q E E E E E E +E E +S S E Q E E +S S E +S S E Q E E
|-(8)---------8---8-|-(8)-8-(8)---8------8-|-(8)---8-(8)---8------8-|
|--------8-10-------|----------------------|------------------------|
|-------------------|----------------------|------------------------|
|-------------------|----------------------|------------------------|
|-------------------|----------------------|------------------------|
|-------------------|----------------------|------------------------|


H. Q
|--------------------------------|
|--5-----------------------------|
|--5-----------------------------|
|--7-----------------------------|
|--------------------------------|
|--------------------------------|
|
| +S S E +S S E +S S E S S E
|-(8)---8-(8)---8-(8)----------8-|
|-------------------------10-----|
|--------------------------------|
|--------------------------------|
|--------------------------------|
|--------------------------------|


H. Q H. Q
|---------------------------------|--1-------------------|
|--3------------------------------|--1-------------------|
|--4------------------------------|--2-------------------|
|--5------------------------------|----------------------|
|---------------------------------|----------------------|
|---------------------------------|----------------------|
|
| +S S S S S S E +S S E E E +E E +S S E Q E E
|-(8)---10---12---10-(10)---8---8-|-(8)-8-(8)---8------8-|
|---------------------------------|----------------------|
|---------------------------------|----------------------|
|---------------------------------|----------------------|
|---------------------------------|----------------------|
|---------------------------------|----------------------|


H. Q H. Q
|--0-------------------------|--1------------------------|
|--1-------------------------|--1------------------------|
|--0-------------------------|--2------------------------|
|----------------------------|---------------------------|
|----------------------------|---------------------------|
|----------------------------|---------------------------|
|
| +S S E +S S E E E S S E +S S E +S S E Q S S E
|-(8)---8-(8)---8----------8-|-(8)---8-(8)---8---------8-|
|-------------------8-10-----|--------------------10-----|
|----------------------------|---------------------------|
|----------------------------|---------------------------|
|----------------------------|---------------------------|
|----------------------------|---------------------------|


H. Q
|---------------------------------|
|--3------------------------------|
|--4------------------------------|
|--5------------------------------|
|---------------------------------|
|---------------------------------|
|
| +S S S S E E +E E +S S E
|-(8)---10---12-10-(10)-8-(8)-----|
|---------------------------------|
|---------------------------------|
|---------------------------------|
|---------------------------------|
|---------------------------------|


H. Q H. Q
|--0--------------------------|-1------------------------|
|--1--------------------------|-1------------------------|
|--2--------------------------|-2------------------------|
|-----------------------------|--------------------------|
|-----------------------------|--------------------------|
|-----------------------------|--------------------------|
|
| E S S E S S E S S E S S Q E E +E E E S S
|-12--10---10-8---8-7---7-----|-----12-10-(10)-12--------|
|-------------------------5---|-6------------------------|
|-----------------------------|---------------------12---|
|-----------------------------|--------------------------|
|-----------------------------|--------------------------|
|-----------------------------|--------------------------|


H. Q
|---------------------------------------|
|--3------------------------------------|
|--4------------------------------------|
|--5------------------------------------|
|---------------------------------------|
|---------------------------------------|
|
| S S S S S S E +E S S S S E
|-10----10---10---10-(10)-12---13---13--|
|---------------------------------------|
|---------------------------------------|
|---------------------------------------|
|---------------------------------------|
|---------------------------------------|


H H
|-----------------------------|
|---5---------------3---------|
|---5---------------4---------|
|---5---------------5---------|
|-----------------------------|
|-----------------------------|
|
| +S S E S S E +S S E Q
|-(13)---12-10---8-(8)--------|
|-----------------------------|
|-----------------------------|
|-----------------------------|
|-----------------------------|
|-----------------------------|


H. Q H. Q
|--0------------------------|-1----------------------|
|--1------------------------|-1----------------------|
|--2------------------------|-2----------------------|
|---------------------------|------------------------|
|---------------------------|------------------------|
|---------------------------|------------------------|
|
| E S S E S S E S S E E Q E E +E E E E
|-12--10---10-8---8-7---7---|-----12-10-(10)-12------|
|-------------------------5-|-6----------------------|
|---------------------------|---------------------12-|
|---------------------------|------------------------|
|---------------------------|------------------------|
|---------------------------|------------------------|


H. Q H. Q H. Q
|--------------------------------|-------------------|-----------------------|
|--3-----------------------------|--5----------------|--6--------------------|
|--4-----------------------------|--5----------------|--5--------------------|
|--5-----------------------------|--5----------------|--7--------------------|
|--------------------------------|-------------------|-----------------------|
|--------------------------------|-------------------|-----------------------|
|
| S S S S S S E +Q S S E +Q E E E E E E +E E +S S E Q E E
|-10----10---10---10-(10)--8---8-|-(8)---------8---8-|-(8)-8-(8)---8------8--|
|--------------------------------|--------8-10-------|-----------------------|
|--------------------------------|-------------------|-----------------------|
|--------------------------------|-------------------|-----------------------|
|--------------------------------|-------------------|-----------------------|
|--------------------------------|-------------------|-----------------------|


H. Q H. Q
|------------------------|--------------------------------|
|--5---------------------|--5-----------------------------|
|--5---------------------|--5-----------------------------|
|--5---------------------|--7-----------------------------|
|------------------------|--------------------------------|
|------------------------|--------------------------------|
|
| +S S E +S S E Q E E +S S E +S S E +S S E S S E
|-(8)---8-(8)---8------8-|-(8)---8-(8)---8-(8)----------8-|
|------------------------|-------------------------10-----|
|------------------------|--------------------------------|
|------------------------|--------------------------------|
|------------------------|--------------------------------|
|------------------------|--------------------------------|


H. Q
|----------------------------------|
|--3-------------------------------|
|--4-------------------------------|
|--5-------------------------------|
|----------------------------------|
|----------------------------------|
|
| +S S S S S S E +S S E E E
|-(8)---10---12---10-(10)---8---8--|
|----------------------------------|
|----------------------------------|
|----------------------------------|
|----------------------------------|
|----------------------------------|


H. Q H. Q
|--1-------------------|--0-------------------------|
|--1-------------------|--1-------------------------|
|--2-------------------|--0-------------------------|
|----------------------|----------------------------|
|----------------------|----------------------------|
|----------------------|----------------------------|
|
| +E E +S S E Q E E +S S E +S S E E E S S E
|-(8)-8-(8)---8------8-|-(8)---8-(8)---8----------8-|
|----------------------|-------------------8-10-----|
|----------------------|----------------------------|
|----------------------|----------------------------|
|----------------------|----------------------------|
|----------------------|----------------------------|


H H
|--1--------------0---------|
|--1--------------1---------|
|--2--------------0---------|
|---------------------------|
|---------------------------|
|---------------------------|
|
| +S S E +S S E Q S S E
|-(8)---8-(8)---8---------8-|
|--------------------10-----|
|---------------------------|
|---------------------------|
|---------------------------|
|---------------------------|


H H
|--1------------------------------|
|--3-----------------3------------|
|--2-----------------4------------|
|--------------------5------------|
|---------------------------------|
|---------------------------------|
|
| +S S S S E E +E E +S S E
|-(8)---10---12-10-(10)-8-(8)-----|
|---------------------------------|
|---------------------------------|
|---------------------------------|
|---------------------------------|
|---------------------------------|


Q. S S E E E E Q. E E E E E H. E E
|-1----1---1-0-----|-----------------|----------------|
|-1------------3-5-|-5------5-6-8----|----------------|
|-2----------------|-5---------------|--9-----------5-|
|------------------|-5------------10-|-10---------7---|
|------------------|-----------------|-12-------------|
|------------------|-----------------|----------------|
|
| W W H Q E E
|------------------|-----------------|--------------8-|
|------------------|-----------------|-----------10---|
|------------------|-----------------|----------------|
|------------------|-----------------|----------------|
|------------------|-----------------|----------------|
|------------------|-----------------|----------------|


Q E E +E E +E E Q. S S E E E E
|---------------------------|-1----1---1-0-----|
|--3------5--3--(3)-1-(1)---|-1------------3-5-|
|--4------------------------|-2----------------|
|--5------------------------|------------------|
|---------------------------|------------------|
|---------------------------|------------------|
|
| +E E E E +E E +Q W
|-(8)-10-12-10-(10)-8-(8)---|------------------|
|---------------------------|------------------|
|---------------------------|------------------|
|---------------------------|------------------|
|---------------------------|------------------|
|---------------------------|------------------|


Q. E E E E E H. E E
|-----------------|-----------------|
|-5------5-6-8----|-----------------|
|-5---------------|--9-----------5--|
|-5------------10-|-10---------7----|
|-----------------|-12--------------|
|-----------------|-----------------|
|
| W H Q E E
|-----------------|--------------8--|
|-----------------|-----------10----|
|-----------------|-----------------|
|-----------------|-----------------|
|-----------------|-----------------|
|-----------------|-----------------|


+E E E E +E E +E E
|---------------------------|
|---------5--3--(3)-1-(1)---|
|-(5)-----------------------|
|---------------------------|
|---------------------------|
|---------------------------|
|
| +E E E E +E E E E
|-(8)-10-12-10-(10)-8--7--8-|
|---------------------------|
|---------------------------|
|---------------------------|
|---------------------------|
|---------------------------|


H. Q H. Q
|-0------------------------------|---------------------------|
|-1------------------------------|--3------------------------|
|-2------------------------------|--4------------------------|
|--------------------------------|--5------------------------|
|--------------------------------|---------------------------|
|--------------------------------|---------------------------|
|
| E S S S S S S S S E E E E E Q +S S E E E
|-8--12---12---12---12---12-10-8-|-10--8-12--(12)---10-8-10--|
|--------------------------------|---------------------------|
|--------------------------------|---------------------------|
|--------------------------------|---------------------------|
|--------------------------------|---------------------------|
|--------------------------------|---------------------------|


W +Q Q H
|---1------------------------|-(1)-------------------------|
|---1------------------------|-(1)--------------3----------|
|---2------------------------|-(2)--------------4----------|
|----------------------------|------------------5----------|
|----------------------------|-----------------------------|
|----------------------------|-----------------------------|
|
| +E E S S E +E E E E E E +E E +E E E S S
|-(10)-8-12-10-8-(8)---------|-----12-(12)-10-(10)-8-7-8-7-|
|----------------------10-12-|-13--------------------------|
|----------------------------|-----------------------------|
|----------------------------|-----------------------------|
|----------------------------|-----------------------------|
|----------------------------|-----------------------------|


H. Q
|-0-----------------------------------|
|-1-----------------------------------|
|-2-----------------------------------|
|-------------------------------------|
|-------------------------------------|
|-------------------------------------|
|
| S S S S S S S S S S E E S S
|-5----12---12---12---12---12-10-8----|
|-------------------------------------|
|-------------------------------------|
|-------------------------------------|
|-------------------------------------|
|-------------------------------------|


H. Q H. Q
|--0--------------------------|-0--------------|
|--1--------------------------|-1--------------|
|--0--------------------------|-0--------------|
|-----------------------------|----------------|
|-----------------------------|----------------|
|-----------------------------|----------------|
|
| Q E E +E E +S S E H Q E E
|-15--------------------------|----------------|
|------17-15-(15)-13-(13)-----|-------------12-|
|-----------------------------|----------14----|
|-----------------------------|----------------|
|-----------------------------|----------------|
|-----------------------------|----------------|


H H S E. +E S S E E E E
|--0-------------------------|---1----(1)-1---1-0-----|
|--1--------------3----------|---1----(1)---------3-5-|
|--0--------------4----------|-2----------------------|
|-----------------5----------|------------------------|
|----------------------------|------------------------|
|----------------------------|------------------------|
|
| E E +E E +E E E S S E E Q H
|----12-(12)-10-(10)-8-7-8---|-8----------------------|
|-13-------------------------|------------------------|
|----------------------------|------------------------|
|----------------------------|------------------------|
|----------------------------|------------------------|
|----------------------------|------------------------|


S E. +E E E E E E S E. +H E E
|---------------------|----------------------|
|---5--(5)---5-6-8----|----------------------|
|---5--(5)------------|----------------------|
|-5----------------10-|----14--(14)-------10-|
|---------------------|-12-15--(15)----12----|
|---------------------|----------------------|
|
| W W
|---------------------|----------------------|
|---------------------|----------------------|
|---------------------|----------------------|
|---------------------|----------------------|
|---------------------|----------------------|
|---------------------|----------------------|


S E. E E +E E +E E Q. S S E E E E
|-----------------------------|---------------------------|
|-----------------------------|-------------------------5-|
|-----------------------------|-10----------10---10-9-7---|
|----12--14-12-(12)-10-(10)---|-10------------------------|
|-10-14-----------------------|-12------------------------|
|-----------------------------|---------------------------|
|
| Q E E E E E E +E E +S S E Q E E
|--------------------8------8-|-(8)-8-(8)----8----------8-|
|------------8--10------------|---------------------------|
|-----------------------------|---------------------------|
|-----------------------------|---------------------------|
|-----------------------------|---------------------------|
|-----------------------------|---------------------------|


Q. E E E E E H. E E
|--------------------------|--------------------------------|
|--5--------------5-6-8----|--------------------------------|
|--5-----------------------|--9---------------------------5-|
|--5--------------------10-|-10-----------------------7-----|
|--------------------------|-12-----------------------------|
|--------------------------|--------------------------------|
|
| +S S E +S S E Q E E +S S E +S S E +S S E S S E
|-(8)---8-(8)---8--------8-|-(8)---8-(8)---8-(8)----------8-|
|--------------------------|-------------------------10-----|
|--------------------------|--------------------------------|
|--------------------------|--------------------------------|
|--------------------------|--------------------------------|
|--------------------------|--------------------------------|


Q E E +E E +E E
|------------------------------------|
|--3----------5----3--(3)---1-(1)----|
|--4---------------------------------|
|--5---------------------------------|
|------------------------------------|
|------------------------------------|
|
| +S S S S S S E +S S E E E
|-(8)---10---12---10-(10)---8-----8--|
|------------------------------------|
|------------------------------------|
|------------------------------------|
|------------------------------------|
|------------------------------------|


Q. S S E E E E Q Q E E E E
|--1----------1---1-0-----|-----------------------------|
|--1------------------3-5-|--5--------------5-6--8------|
|--2----------------------|--5--------------------------|
|-------------------------|--5-----------------------10-|
|-------------------------|-----------------------------|
|-------------------------|-----------------------------|
|
| +E E +S S E Q E E +S S E +S S E E E S S E
|-(8)-8-(8)---8---------8-|-(8)---8-(8)---8-----------8-|
|-------------------------|-------------------8-10------|
|-------------------------|-----------------------------|
|-------------------------|-----------------------------|
|-------------------------|-----------------------------|
|-------------------------|-----------------------------|


H Q E E
|-----------------------------|
|-----------------------------|
|-10---------------9-------5--|
|-10--------------10---7------|
|-12--------------10----------|
|-----------------------------|
|
| +S S E +S S E Q S S E
|-(8)---8-(8)---8----------8--|
|---------------------10------|
|-----------------------------|
|-----------------------------|
|-----------------------------|
|-----------------------------|


Q E E E E +E E Q. S S E E E E
|---------------------------------|-1------1-----1-----0---------|
|--6----------5--3---3--1-(1)-----|-1----------------------3---5-|
|--7-----------------4------------|-2----------------------------|
|--7-----------------5------------|------------------------------|
|---------------------------------|------------------------------|
|---------------------------------|------------------------------|
|
| +S S S S E E +E E +S S E Q E E +S S E +E E
|-(8)---10---12-10-(10)-8-(8)-----|-------13---(13)---12-(12)-10-|
|---------------------------------|------------------------------|
|---------------------------------|------------------------------|
|---------------------------------|------------------------------|
|---------------------------------|------------------------------|
|---------------------------------|------------------------------|


H E E E E H. E E
|-------------------------|-------------------------|
|-5---------5---6---8-----|-------------------------|
|-5-----------------------|--9--------------------5-|
|-5--------------------10-|-10-----------------7----|
|-------------------------|-12----------------------|
|-------------------------|-------------------------|
|
| Q E E +E E +E E Q S S E +E E E E
|-8----13-(13)-12-(12)-10-|--8---8---8-(8)-10-12-10-|
|-------------------------|-------------------------|
|-------------------------|-------------------------|
|-------------------------|-------------------------|
|-------------------------|-------------------------|
|-------------------------|-------------------------|


Q E E +E E +E E Q. S S E E E E
|-----------------------------|---1-----------1-----1-----0---------|
|---3---5---3-(3)--1---(1)----|---1---------------------------3---5-|
|---4-------------------------|---2---------------------------------|
|---5-------------------------|-------------------------------------|
|-----------------------------|-------------------------------------|
|-----------------------------|-------------------------------------|
|
| +Q S S E +E S S E E +E E +S S E +S S E +E E
|-(10)--8---8-(8)-10---12--10-|-(10)-8-(8)---13---(13)---12-(12)-10-|
|-----------------------------|-------------------------------------|
|-----------------------------|-------------------------------------|
|-----------------------------|-------------------------------------|
|-----------------------------|-------------------------------------|
|-----------------------------|-------------------------------------|


Q. E E E E E H Q E E
|--------------------------|------------------|
|-5----------5---6---8-----|------------------|
|-5------------------------|-10------9-----5--|
|-5---------------------10-|-10-----10---7----|
|--------------------------|-12-----10--------|
|--------------------------|------------------|
|
| Q E E +E E +E E Q Q Q E E
|-8-----13-(13)-12-(12)-10-|--8------------8--|
|--------------------------|------------10----|
|--------------------------|------------------|
|--------------------------|------------------|
|--------------------------|------------------|
|--------------------------|------------------|


Q E E E E +E E H H
|-------------------------------|--1---------------0-----------|
|--6--------5--3---3--1-(1)-----|--1---------------1-----------|
|--7---------------4------------|--2---------------0-----------|
|--7---------------5------------|------------------------------|
|-------------------------------|------------------------------|
|-------------------------------|------------------------------|
|
| +E S S E E +E E +S S E +S S E +S S E +S S E E E
|-(8)-10---12-10-(10)-8-(8)---8-|-(8)---8-(8)---8-(8)--------8-|
|-------------------------------|-------------------------10---|
|-------------------------------|------------------------------|
|-------------------------------|------------------------------|
|-------------------------------|------------------------------|
|-------------------------------|------------------------------|


H H
|--1--------------------------------|
|--3-----------------3--------------|
|--2-----------------4--------------|
|--------------------5--------------|
|-----------------------------------|
|-----------------------------------|
|
| +S S S S E E +S S E +S S E
|-(8)---10---12-10-(10)---8-(8)---8-|
|-----------------------------------|
|-----------------------------------|
|-----------------------------------|
|-----------------------------------|
|-----------------------------------|


H H H H H. Q
|--1--------------0----|-1-------------------------|----------------------*|
|--1--------------1----|-3---------3---------------|---5------------------*|
|--2--------------0----|-2---------4---------------|---5------------------*|
|----------------------|-----------5---------------|---5------------------*|
|----------------------|---------------------------|----------------------*|
|----------------------|---------------------------|----------------------*|
|
| +S S E +S S E H Q S S E +S S S S E E +E E +Q +Q Q
|-(8)---8-(8)---8------|----8---8-(8)---10---12-10-|-(10)-8-(8)--(8)------*|
|----------------------|---------------------------|----------------------*|
|----------------------|---------------------------|----------------------*|
|----------------------|---------------------------|----------------------*|
|----------------------|---------------------------|----------------------*|
|----------------------|---------------------------|----------------------*|


Duration Legend
---------------
W - whole; H - half; Q - quarter; E - 8th; S - 16th; T - 32nd; X - 64th; a - acciaccatura
+ - note tied to previous; . - note dotted; .. - note double dotted
Uncapitalized letters represent notes that are staccato (1/2 duration)
Irregular groupings are notated above the duration line
Duration letters will always appear directly above the note/fret number it represents the
duration for. Duration letters with no fret number below them represent rests. Multi-
bar rests are notated in the form Wxn, where n is the number of bars to rest for. Low
melody durations appear below the staff

Tablature Legend
----------------
h - hammer-on
p - pull-off
b - bend
pb - pre-bend
r - bend release (if no number after the r, then release immediately)
/ - slide into or out of (from/to "nowhere")
s - legato slide
S - shift slide
<n> - natural harmonic
[n] - artificial harmonic
n(n) - tapped harmonic
~ - vibrato
tr - trill
T - tap
TP - trem. picking
PM - palm muting
n/ - tremolo bar dip; n = amount to dip
n - tremolo bar down
n/ - tremolo bar up
/n - tremolo bar inverted dip
= - hold bend; also acts as connecting device for hammers/pulls
<> - volume swell (louder/softer)
x - on rhythm slash represents muted slash
o - on rhythm slash represents single note slash

Misc Legend
-----------
| - bar
|| - double bar
||o - repeat start
o|| - repeat end
*| - double bar (ending)
: - bar (freetime)
$ - Segno
& - Coda

-----------------------------
|  акорди, навчання, відео  |
|     http://akords.org     |
-----------------------------

 (голосів: 0)
   Інші пісні:
  • The One
  • Get Down Bass
  • The One Bass
  • Weve Got It Going On
  • Weve Got It Going On Bass 2
  •  
    Шановний відвідувач, Ви зайшли на сайт як незареєстрований користувач. Ми рекомендуємо Вам реєструватися або зайти на сайт під своїм ім'ям.

    Додавання коментаря

    Ім'я:*
    E-Mail:*
    Коментар:
    Введіть два слова, показані на зображенні: *
     
      

    BLIBL-створити сайт безкоштовно