Зробити стартовою  |  Додати в вибране
 
Пошук по сайту:  
  логін: пароль:  
    Реєстрація на сайті   Нагадати пароль?    

Видавництво Симфонія | Книжкова фабрика

akords.org » B » Backstreet Boys » Anywhere For You Bass
Знайти необхідні акорди

Backstreet Boys - Anywhere For You Bass  табулатура

-------------------------------------------------------------------------------
ANYWHERE FOR YOU - Backstreet Boys
-------------------------------------------------------------------------------
Tabbed by: metallhead
Email: homesticky@gmail.com

Tuning: B E A D G B


Gtr I (B E A D G B) - 'Bass'

Q=120
4/4
Gtr I
W W W H H
|----------|----------|----------|-----------|
|----------|----------|----------|-----------|
|----------|----------|----------|------5----|
|----------|----------|----------|-----------|
|----------|----------|----------|-----------|
|----------|----------|----------|-----------|


W H. E E H. E E W
|----------|-------------|-------------|------|
|----------|-------------|-------------|------|
|----------|-2---------2-|-3---------3-|------|
|----------|-------------|-------------|------|
|----------|-------------|-------------|-3----|
|-1--------|-------------|-------------|------|


Q. E +Q. E H E E E E H. E E H H
|----------------|------------------|-------------|-----------|
|------4-(4)---2-|-2----14----------|-------------|-----------|
|----------------|---------14-------|-3---------3-|-----------|
|-3--------------|------------------|-------------|-----------|
|----------------|------------------|-------------|-3---------|
|----------------|------------13-10-|-------------|------3----|


H. E E H H H. E E W
|-------------|-----------|-------------|------|
|-------------|-----------|-------------|------|
|-------------|------2----|-3---------3-|------|
|-------------|-----------|-------------|------|
|-------------|-----------|-------------|-3----|
|-1---------1-|-1---------|-------------|------|


H. E E H H H. E E H Q. E
|-------------|-----------|-------------|-------------|
|-------------|-----------|-------------|-------------|
|-------------|------2----|-3---------3-|-------------|
|-------------|-----------|-------------|-------------|
|-------------|-----------|-------------|-3----3------|
|-1---------1-|-1---------|-------------|-------------|


W W W W
|----------|----------|----------|------|
|----------|----------|----------|------|
|----------|----------|----------|------|
|----------|----------|----------|------|
|----------|----------|----------|------|
|----------|----------|----------|------|


W W W E E E E E E E E
|----------|----------|----------|------------------------|
|----------|----------|----------|---10-------14----------|
|----------|----------|----------|---------------15-------|
|----------|----------|----------|------13-15-------------|
|----------|----------|----------|------------------------|
|----------|----------|----------|------------------13-11-|


H. E E H. Q H. E S S H H
|---------------|-------------|-----------------|------------|
|---------------|-------------|-----------------|------------|
|---------------|-------------|-----------------|------------|
|---------------|-------------|-----------------|------------|
|---------------|-------------|-----------------|------------|
|-11---------11-|-11----------|-10---------10---|-10---------|


H. E E E E Q H W H Q. E
|-------------|-------------|----------|-------------|
|-------------|-------------|----------|-------------|
|-------------|-------------|----------|-7-----------|
|-------------|-------------|----------|-------------|
|-------------|-------------|----------|------7------|
|-9---------9-|-9-----------|-8--------|-------------|


W H. E E H. E E W
|----------|-------------|-------------|------|
|----------|-------------|-------------|------|
|----------|-2---------2-|-3---------3-|------|
|----------|-------------|-------------|------|
|----------|-------------|-------------|-3----|
|-1--------|-------------|-------------|------|


Q. E +Q. E H E E E E H. E E H +Q. E
|----------------|------------------|-------------|--------------|
|------4-(4)---2-|-2----14----------|-------------|--------------|
|----------------|---------14-------|-3---------3-|--------------|
|-3--------------|------------------|-------------|--------------|
|----------------|------------------|-------------|-3----(3)---3-|
|----------------|------------13-10-|-------------|--------------|


H. E E H. E E H H H. E E
|-------------|-------------|-----------|-------------|
|-------------|---------2---|------4----|-2-----------|
|-3---------3-|-------------|-----------|---------2---|
|-------------|-----------2-|-3---------|-------------|
|-------------|-3-----------|-----------|-------------|
|-------------|-------------|-----------|-----------1-|


H +Q. E H. E E W Q. E Q E E
|--------------|-------------|----------|---------------|
|--------------|-------------|----------|---------------|
|--------------|-2---------2-|-0--------|-0----0-2----2-|
|--------------|-------------|----------|---------------|
|-1----(1)---1-|-------------|----------|---------------|
|--------------|-------------|----------|---------------|


H. E E H +Q. E H +Q. E H H
|-------------|--------------|--------------|-----------|
|-------------|--------------|--------------|-----------|
|-3---------3-|--------------|--------------|-----------|
|-------------|--------------|-3----(3)---3-|-3----7----|
|-------------|-3----(3)---3-|--------------|-----------|
|-------------|--------------|--------------|-----------|


H +Q. E W W H +Q. E
|--------------|-----------|----------|--------------|
|------------7-|-----------|----------|--------------|
|--------------|-----------|----------|--------------|
|-8----(8)-----|-10--------|----------|--------------|
|--------------|-----------|----------|-8----(8)-----|
|--------------|-----------|-8--------|------------1-|


H +Q. E H. E E W H +Q. E
|--------------|-------------|----------|--------------|
|--------------|-------------|----------|--------------|
|--------------|-------------|----------|--------------|
|------------3-|-------------|----------|-3----(3)-----|
|--------------|-3---------3-|-3--------|--------------|
|-1----(1)-----|-------------|----------|------------1-|


H H H +Q. E E E E E Q Q H. E E
|-----------|--------------|--------------------|-------------|
|-----------|--------------|---10-------14------|-3---------3-|
|------2----|--------------|----------------15--|-------------|
|-----------|--------------|------13-15---------|-------------|
|-----------|-3----(3)---3-|--------------------|-------------|
|-1---------|--------------|--------------------|-------------|


H. Q H. E S S H H H. E E
|------------|---------------|-----------|--------------|
|-3----------|-2---------2---|-2---------|-1---------1--|
|------------|---------------|-----------|--------------|
|------------|---------------|-----------|--------------|
|------------|---------------|-----------|--------------|
|------------|---------------|-----------|--------------|


E E Q H W H Q. E W
|-------------|----------|-------------|------|
|-1-----------|-0--------|-2-----------|------|
|-------------|----------|-------------|------|
|-------------|----------|------2------|------|
|-------------|----------|-------------|------|
|-------------|----------|-------------|-1----|


H. E E H. E E W Q. E +Q. E
|-------------|-------------|----------|----------------|
|-------------|-------------|----------|------4-(4)---2-|
|-2---------2-|-3---------3-|----------|----------------|
|-------------|-------------|----------|-3--------------|
|-------------|-------------|-3--------|----------------|
|-------------|-------------|----------|----------------|


H E E E E H. E E H +Q. E H. E E
|------------------|-------------|--------------|-------------|
|-2----14----------|-------------|--------------|-------------|
|---------14-------|-3---------3-|--------------|-3---------3-|
|------------------|-------------|--------------|-------------|
|------------------|-------------|-3----(3)---3-|-------------|
|------------13-10-|-------------|--------------|-------------|


H. E E H H H. E E H +Q. E
|-------------|-----------|-------------|--------------|
|---------2---|------4----|-2-----------|--------------|
|-------------|-----------|---------2---|--------------|
|-----------2-|-3---------|-------------|--------------|
|-3-----------|-----------|-------------|-1----(1)---1-|
|-------------|-----------|-----------1-|--------------|


H. E E W Q. E Q E E H. E E
|-------------|----------|---------------|-------------|
|-------------|----------|---------------|-------------|
|-2---------2-|-0--------|-0----0-2----2-|-3---------3-|
|-------------|----------|---------------|-------------|
|-------------|----------|---------------|-------------|
|-------------|----------|---------------|-------------|


H +Q. E H +Q. E E E Q Q. E H. E S S
|--------------|--------------|---------------|----------------|
|--------------|--------------|---------------|----------------|
|--------------|--------------|---------------|----------------|
|--------------|-3----(3)-----|-3-3----3------|-5---------5----|
|-3----(3)---3-|------------3-|---------------|----------------|
|--------------|--------------|---------------|----------------|


H +E E +Q Q. E E E Q H Q. E Q. E E E Q
|-----------------|-------------------|-------------|------3-2--------|
|-4----(4)--------|------12-----------|-------------|-7--------14-----|
|-----------------|------------11-----|------7------|-----------------|
|----------5-(5)--|-------------------|-------------|-----------------|
|-----------------|-5-------12--------|-------------|-------------14--|
|-----------------|---------------10--|-8-----------|-----------------|


Q. E +Q Q H +E E Q H H W
|--------------------|------------------|-----------|------|
|--------------------|------------------|-----------|------|
|-------12-(12)------|------------------|-9---------|-0----|
|--------------------|------------------|-----------|------|
|----------------12--|------------------|------9----|------|
|-12-----------------|-10----(10)---10--|-----------|------|


H. E E H. E E W Q. E +Q. E
|-------------|-------------|----------|----------------|
|-------------|-------------|----------|------6-(6)---4-|
|-------------|-5---------5-|----------|----------------|
|-------------|-------------|----------|-5--------------|
|-------------|-------------|-5--------|----------------|
|-7---------7-|-------------|----------|----------------|


H E E E E H. E E H +Q. E H. E E
|------0----------|-------------|--------------|-------------|
|-4------11-------|-------------|--------------|-------------|
|-----------12----|-5---------5-|--------------|-5---------5-|
|-----------------|-------------|--------------|-------------|
|-----------------|-------------|-5----(5)---5-|-------------|
|--------------12-|-------------|--------------|-------------|


H. E E H H H. E E H +Q. E
|-------------|-----------|-------------|--------------|
|---------4---|------6----|-4-----------|--------------|
|-------------|-----------|---------4---|--------------|
|-----------4-|-5---------|-------------|--------------|
|-5-----------|-----------|-------------|-3----(3)---3-|
|-------------|-----------|-----------3-|--------------|


H. E E W Q. E Q E E H. E E
|-------------|----------|---------------|-------------|
|-------------|----------|---------------|-------------|
|-4---------4-|-2--------|-2----2--------|-------------|
|-------------|----------|---------------|-------------|
|-------------|----------|--------2----2-|-3---------3-|
|-------------|----------|---------------|-------------|


H H W H. E E H. E E
|-----------|----------|-------------|-------------|
|-4---------|----------|-------------|-------------|
|-----------|----------|-4---------4-|-5---------5-|
|------4----|----------|-------------|-------------|
|-----------|----------|-------------|-------------|
|-----------|-3--------|-------------|-------------|


W Q. E +Q. E H E E E E H. E E
|----------|----------------|------0----------|-------------|
|----------|------6-(6)---4-|-4------11-------|-------------|
|----------|----------------|-----------12----|-5---------5-|
|----------|-5--------------|-----------------|-------------|
|-5--------|----------------|-----------------|-------------|
|----------|----------------|--------------12-|-------------|


H +Q. E H. E E H. E E H H
|--------------|-------------|-------------|-----------|
|--------------|-------------|---------4---|------6----|
|--------------|-5---------5-|-------------|-----------|
|--------------|-------------|-----------4-|-5---------|
|-5----(5)---5-|-------------|-5-----------|-----------|
|--------------|-------------|-------------|-----------|


H. E E W H +Q. E H. E E
|-------------|----------|--------------|-------------|
|-4-----------|----------|--------------|-------------|
|---------4---|----------|--------------|-4---------4-|
|-------------|----------|--------------|-------------|
|-------------|----------|-3----(3)---3-|-------------|
|-----------3-|----------|--------------|-------------|


W E E E E E E E E W W
|----------|---------------------|----------|------|
|----------|-------12-11---------|----------|------|
|-2--------|-------------12------|----------|-7----|
|----------|---2-5---------------|----------|------|
|----------|---------------------|----------|------|
|----------|----------------10-8-|-8--------|------|


W W E S S +S E. E. S +S E S H H
|----------|----------|-6---1-(1)---------------------|-----------|
|----------|----------|-----------14------------------|-----------|
|-5--------|-4--------|---------------15----------3---|-2----2----|
|----------|----------|-------------------------------|-----------|
|----------|----------|-------------------------------|-----------|
|----------|----------|-------------------13-(13)-----|-----------|


W +W
|----------|--------*|
|----------|--------*|
|-0--------|-(0)----*|
|----------|--------*|
|----------|--------*|
|----------|--------*|


Duration Legend
---------------
W - whole; H - half; Q - quarter; E - 8th; S - 16th; T - 32nd; X - 64th; a - acciaccatura
+ - note tied to previous; . - note dotted; .. - note double dotted
Uncapitalized letters represent notes that are staccato (1/2 duration)
Irregular groupings are notated above the duration line
Duration letters will always appear directly above the note/fret number it represents the
duration for. Duration letters with no fret number below them represent rests. Multi-
bar rests are notated in the form Wxn, where n is the number of bars to rest for. Low
melody durations appear below the staff

Tablature Legend
----------------
h - hammer-on
p - pull-off
b - bend
pb - pre-bend
r - bend release (if no number after the r, then release immediately)
/ - slide into or out of (from/to "nowhere")
s - legato slide
S - shift slide
<n> - natural harmonic
[n] - artificial harmonic
n(n) - tapped harmonic
~ - vibrato
tr - trill
T - tap
TP - trem. picking
PM - palm muting
n/ - tremolo bar dip; n = amount to dip
n - tremolo bar down
n/ - tremolo bar up
/n - tremolo bar inverted dip
= - hold bend; also acts as connecting device for hammers/pulls
<> - volume swell (louder/softer)
x - on rhythm slash represents muted slash
o - on rhythm slash represents single note slash

Misc Legend
-----------
| - bar
|| - double bar
||o - repeat start
o|| - repeat end
*| - double bar (ending)
: - bar (freetime)
$ - Segno
& - Coda

-----------------------------
|  акорди, навчання, відео  |
|     http://akords.org     |
-----------------------------

 (голосів: 0)
   Інші пісні:
  • Get Down Bass
  • The One Bass
  • Weve Got It Going On Bass 2
  • Everybody Bass 2
  • Larger Than Life Bass 2
  •  
    Шановний відвідувач, Ви зайшли на сайт як незареєстрований користувач. Ми рекомендуємо Вам реєструватися або зайти на сайт під своїм ім'ям.

    Додавання коментаря

    Ім'я:*
    E-Mail:*
    Коментар:
    Введіть два слова, показані на зображенні: *
     
      

    BLIBL-створити сайт безкоштовно