Зробити стартовою  |  Додати в вибране
 
Пошук по сайту:  
  логін: пароль:  
    Реєстрація на сайті   Нагадати пароль?    

Видавництво Симфонія | Книжкова фабрика

akords.org » B » Backstreet Boys » Anywhere For You
Знайти необхідні акорди

Backstreet Boys - Anywhere For You  табулатура

-------------------------------------------------------------------------------
ANYWHERE FOR YOU - Backstreet Boys
-------------------------------------------------------------------------------
Tabbed by: metallhead
Email: homesticky@gmail.com

Tuning: E A D G B E


Gtr I (E A D G B E) - 'Voice'
Gtr II (E A D G B E) - 'Keyboard'
Gtr III (E A D G B E) - 'Keyboard'
Gtr IV (E A D G B E) - 'Keyboard'

Q=120
4/4
Gtr I
W W
|--------------------------|-----------------------------|
|--------------------------|-----------------------------|
|--------------------------|-----------------------------|
|--------------------------|-----------------------------|
|--------------------------|-----------------------------|
|--------------------------|-----------------------------|
|
| Gtr II
| E E E E +E E +E E +E E E E +E E E E
|-8---8-10-(10)-15-(15)----|--------------------15-------|
|---8-------------------15-|-(15)-------15-(15)----15----|
|--------------------------|---------17------------------|
|--------------------------|------17------------------17-|
|--------------------------|-----------------------------|
|--------------------------|-----------------------------|
|
| Gtr IV
| W W
|--------------------------|-----------------------------|
|--------------------------|-----------------------------|
|--------------------------|-----------------------------|
|--------------------------|-----------------------------|
|--------------------------|-----------------------------|
|--------------------------|-----------------------------|


W H Q Q
|-----------------------------|---------------------------------------|
|-----------------------------|---------------------1----------3------|
|-----------------------------|---------------------------------------|
|-----------------------------|---------------------------------------|
|-----------------------------|---------------------------------------|
|-----------------------------|---------------------------------------|
|
| E E E E +E E +E E E E E E +E E E E
|------------------15-(15)----|---------------------------------------|
|----------15-(15)---------15-|--15---------15----(15)------------15--|
|-17----17--------------------|----------17-------------------17------|
|----17-----------------------|-------17---------------17-------------|
|-----------------------------|---------------------------------------|
|-----------------------------|---------------------------------------|
|
| Q E E +E E +E E +Q.. S E. S +E E
|-------20--------------------|---------------------------------------|
|----------22-(22)-24-(24)----|----------------20--18-----17-(17)-15--|
|--------------------------24-|-(24)-----------22---------------------|
|-----------------------------|---------------------------------------|
|-----------------------------|---------------------------------------|
|-----------------------------|---------------------------------------|


Q S S E +S S E +S S E +H Q E E Q S S E +E E +Q
|--1-------0---0--(0)--------------|------------3---|-3--1---1-(1)-0-(0)---|
|-----------------------3--(3)---5-|-(5)------------|----------------------|
|----------------------------------|---------5------|----------------------|
|----------------------------------|----------------|----------------------|
|----------------------------------|----------------|----------------------|
|----------------------------------|----------------|----------------------|
|
| Q S S E E E E E Q. E Q Q Q S S E E E +Q
|----------------------------------|------------3---|-3--1---1-----0-(0)---|
|--6-------5---5--------3--------5-|----------------|-1------1-------------|
|--7-------5---5--------4--------5-|---------5------|-2--------------------|
|--7-------5---5--------5--------5-|-------5--------|----------------------|
|------------------3---------------|----------------|----------------------|
|--8-------------------------------|--0------0------|-1---------1----------|
|
| S S E Q +Q +S S E W W
|------20--------------------------|----------------|----------------------|
|-15-------------------------------|----------------|----------------------|
|-17-------------------------------|----------------|----------------------|
|---------22-----(22)-----(22)-----|----------------|----------------------|
|----------------------------------|----------------|----------------------|
|----------------------------------|----------------|----------------------|


Q. S S Q +S S E Q S S E +E E +S S E
|-0-----1-0--------------|--1---0----0--(0)-----------|
|------------3---(3)-----|------------------3-(3)---5-|
|------------5---(5)-----|----------------------------|
|------------------------|----------------------------|
|------------------------|----------------------------|
|------------------------|----------------------------|
|
| Q Q Q. E Q E E Q E E
|-0----------------------|--8------------8------------|
|-1----------3-----------|--8------------8----------5-|
|-2----------4-----------|--9--------9---7------------|
|------------5-----------|-10------------9------------|
|------------------------|-10-------------------------|
|-3----------3-----------|--8------------7------------|
|
| H Q Q Q E E +H
|-----------22---20------|----------------------------|
|------------------------|-22--24---------------------|
|------------------------|----------24-(24)-----------|
|------------------------|----------------------------|
|------------------------|----------------------------|
|------------------------|----------------------------|


+Q +S S S S Q E E
|---------------------------------3------|
|-(5)----(5)-----------------------------|
|---------------5----5-------------------|
|----------------------------------------|
|----------------------------------------|
|----------------------------------------|
|
| Q. E +S S S S E S S
|--5-------------------------------------|
|---------------------------------8--5---|
|--5------------------------------5------|
|--7------------5---(5)-----7------------|
|--0-------------------------------------|
|----------------------------------------|
|
| E E E E S E. +Q
|----------------------------------------|
|----------------------------------------|
|-24--22-21----19-------17------(17)-----|
|----------------------------------------|
|----------------------------------------|
|----------------------------------------|


Q S S E +Q Q Q +S S S S H
|---3---1---1-(1)---0--|---0------(0)---1-0---------|
|----------------------|--------------------3-------|
|----------------------|----------------------------|
|----------------------|----------------------------|
|----------------------|----------------------------|
|----------------------|----------------------------|
|
| Q S S E E E Q Q. E E E E E
|---0---1-----------0--|----------------------------|
|---1-------6-----1----|---3------------------------|
|---2----------2-------|---4------------------------|
|---3-------3----------|---5------------------5-7-9-|
|----------------------|--------------------5-------|
|---1------------------|---3------------3-----------|
|
| +W +S S E Q H
|----------------------|----------------------------|
|----------------------|----------------------------|
|-(17)-----------------|-(17)-----------------------|
|----------------------|----------------------------|
|----------------------|----------------------------|
|----------------------|----------------------------|


H +H W
|-------------------------|-------------------------|
|--1------------(1)-------|-------------------------|
|-------------------------|-------------------------|
|-------------------------|-------------------------|
|-------------------------|-------------------------|
|-------------------------|-------------------------|
|
| Q S S E E E E E E E E E +E E S S S S
|-----------------------0-|-------0-(0)---3---0-----|
|--6-----5---5------3-1---|-----1---------1---------|
|--9-----0---5------0-----|---0---------0-----------|
|-10---------5------------|-------------------------|
|-10-------------3--------|-------------------------|
|--8----------------------|-0-----------------------|
|
| E E Q +H W
|----20-------------------|-------------------------|
|-------------------------|-------------------------|
|-17----------------------|-------------------------|
|-------22-----(22)-------|-------------------------|
|-------------------------|-------------------------|
|-------------------------|-------------------------|


Gtr II
Q S S E E E E E Q. E Q Q Q S S E E E E E E E E E E E E S S
|-3--1---1-------1-|--------------|-1--0---0-------0-|-------------3------|
|-1------3---5-3---|-5------3-----|-5------1---3-1---|---------5-----1----|
|-2--2---2---2-----|-2------4-----|-5--0---0---0-----|-------5-----0------|
|-3--------3-------|-5------7-----|-5----------------|-----5--------------|
|------------------|--------------|-3--------3-------|---3-------3--------|
|-1----------------|-3------------|------------------|-0------------------|


Q S S E E E E S S Q +S S E H
|-3--1---1-------1---|----------------------|
|-1------3---5-3-----|--3--(3)--------------|
|-2--2---2---2-------|--2--(2)-----4--------|
|-3--------3---------|--5--(5)-----5--------|
|--------------------|----------------------|
|-1------------------|--3--(3)-----3--------|
|
| Gtr III
| W H Q E S S
|--------------------|----------------------|
|--------------------|----------------------|
|--------------------|------------------0---|
|--------------------|----------------------|
|--------------------|----------------------|
|--------------------|----------------------|
|
| Gtr IV
| W H H
|--------------------|----------------------|
|--------------------|----------------------|
|--------------------|----------------------|
|--------------------|-24-------------------|
|--------------------|----------------------|
|--------------------|----------------------|


W H E E Q
|-------------------------|------------------------|
|-------------------------|------------------------|
|-------------------------|---------------------3--|
|-------------------------|-------------------5----|
|-------------------------|------------------------|
|-------------------------|------------------------|
|
| Q S S E +Q S S E +Q E E +Q Q
|-----------------------1-|--(1)-----0-------------|
|--------1---1-(1)--3-----|-------------3-(3)---1--|
|--0----------------------|------------------------|
|-------------------------|------------------------|
|-------------------------|------------------------|
|-------------------------|------------------------|
|
| E E Q H +E E E E H
|----20-------------------|------------------------|
|--------------20---------|-(20)-18-17-15-13-------|
|-------------------------|------------------------|
|-22----22----------------|------------------------|
|-------------------------|------------------------|
|-------------------------|------------------------|


H +Q. E +Q. E +E S S +Q
|--------------------8-|-(8)---------------------------------|
|----------------------|---------------10-(10)---------------|
|-3--------(3)---------|-------------------------10-(10)-----|
|-0--------(0)---------|-------------------------------------|
|-1--------(1)---------|-------------------------------------|
|-3--------(3)---------|-------------------------------------|
|
| Q S S E +E E +Q S S S S +Q +Q E S S
|-3--1---1-(1)-0-(0)---|--0--1-0-----------------------------|
|----------------------|---------3-(3)-----(3)-----------1---|
|----------------------|-------------------------------------|
|----------------------|-------------------------------------|
|----------------------|-------------------------------------|
|----------------------|-------------------------------------|


S E. +Q +H
|-----------------------------|
|-----------------------------|
|-----9---(9)------(9)--------|
|----10--(10)-----(10)--------|
|-10--------------------------|
|--8--------------------------|
|
| Q S S E +Q S E S
|--3-------1----1--(1)--0---0-|
|-----------------------------|
|-----------------------------|
|-----------------------------|
|-----------------------------|
|-----------------------------|


+S S E +S S E +E E +Q
|-----------------------------------|
|--------10-(10)---8---(8)-6---(6)--|
|--(9)---10-(10)---9---(9)-7---(7)--|
|-(10)------------------------------|
|-----------------------------------|
|-----------------------------------|
|
| +Q +S S S S +E S S Q
|--(0)-------(0)--------------------|
|----------------3---3-(3)-5-3--1---|
|-----------------------------------|
|-----------------------------------|
|-----------------------------------|
|-----------------------------------|
|
| Gtr IV
| W
|-----------------------------------|
|-----------------------------------|
|-----------------------------------|
|-----------------------------------|
|-----------------------------------|
|-----------------------------------|


H +H E E E E Q Q
|-----------------------|--------------------------------|
|-----------------------|--------------1-----------------|
|-3----------(3)--------|---------3----------2-----------|
|-5----------(5)--------|------3---------------------3---|
|-5----------(5)--------|--------------------------------|
|-3----------(3)--------|--------------------------------|
|
| S E. S S E +Q S S E +Q S S S S +S E S +Q
|---3--1---1-(1)--0---3-|-(3)----------------------------|
|-----------------------|-----------5----3--(3)---1-(1)--|
|-----------------------|--------------------------------|
|-----------------------|--------------------------------|
|-----------------------|--------------------------------|
|-----------------------|--------------------------------|
|
| W E E E E +H
|-----------------------|-17--15-17---15---(15)----------|
|-----------------------|--------------------------------|
|-----------------------|--------------------------------|
|-----------------------|--------------------------------|
|-----------------------|--------------------------------|
|-----------------------|--------------------------------|


H +E E E E
|--5-----------(5)-------1---|
|--6-----------(6)---3-------|
|--7-----------(7)-3---------|
|--8-----------(8)-----------|
|----------------------------|
|--6-----------(6)-----------|
|
| Q S S E +Q S E S
|--3---1----1--(1)---0-----0-|
|----------------------------|
|----------------------------|
|----------------------------|
|----------------------------|
|----------------------------|
|
| Q E E +H
|-----20---------------------|
|-13-------------------------|
|----------------------------|
|----------22-(22)-----------|
|----------------------------|
|----------------------------|


+E E +E E +E E +Q H +E E E E
|--(1)-5----(5)-----------------------|-3--------(3)-------0--|
|-----------------6---(6)-------------|-5--------(5)---1------|
|-------------------------7-(7)-------|-5--------(5)-2--------|
|-------------------------------------|-7--------(7)----------|
|-------------------------------------|-0--------(0)----------|
|-------------------------------------|-----------------------|
|
| +E. S E S S +Q S S S S Q S S E +Q S S E
|--(0)-------0------------------------|-3--1---1-(1)---0------|
|--------3---3------3-(3)----1----1---|-----------------------|
|-------------------------------------|-----------------------|
|-------------------------------------|-----------------------|
|-------------------------------------|-----------------------|
|-------------------------------------|-----------------------|
|
| +Q +S S E H W
|-------------------------------------|-----------------------|
|-------------------------------------|-----------------------|
|-------------------------------------|-----------------------|
|-(22)-----(22)-----------------------|-----------------------|
|-------------------------------------|-----------------------|
|-------------------------------------|-----------------------|


+E E E E E E Q H +E E E E
|-(0)-3---------------------|--3---------------(3)----------------|
|-------5--------------5----|--4---------------(4)-----1----------|
|-----------5-------5-------|--5---------------(5)-1---------1----|
|--------------7------------|--6---------------(6)----------------|
|---------------------------|-------------------------------------|
|---------------------------|--4---------------(4)----------------|
|
| Q S S E +S S E +E E S E. S S E +Q S S E
|--0------------------------|----3------1---1--(1)----------------|
|-------3---3-(3)---1-(1)---|--------------------------4-----4----|
|---------------------------|-------------------------------------|
|---------------------------|-------------------------------------|
|---------------------------|-------------------------------------|
|---------------------------|-------------------------------------|
|
| W E E Q +Q +S S S S
|---------------------------|-------20----------------------------|
|---------------------------|-------------------------------------|
|---------------------------|-------------------------------------|
|---------------------------|-22-------22-----(22)---(22)---22-24-|
|---------------------------|-------------------------------------|
|---------------------------|-------------------------------------|


S S S S E S S E E E E
|--3-----------------------------|
|--4----4-------4-------4--------|
|--5----5-------5-------5-----5--|
|--------------------------6-----|
|--------------------------------|
|-----------------------------4--|
|
| +Q S S E +E E +Q
|--------------------------------|
|-(4)-------3---3---(3)-1-(1)----|
|--------------------------------|
|--------------------------------|
|--------------------------------|
|--------------------------------|
|
| W
|--------------------------------|
|--------------------------------|
|-20-----------------------------|
|--------------------------------|
|--------------------------------|
|--------------------------------|


Gtr I
W H H
|-------------------|----------------|
|-------------------|-1---------3----|
|-------------------|----------------|
|-------------------|----------------|
|-------------------|----------------|
|-------------------|----------------|
|
| Gtr II
| W H H
|-3-----------------|-----------3----|
|-3-----------------|-6---------3----|
|-5-----------------|-5---------4----|
|-5-----------------|-7--------------|
|-------------------|-0--------------|
|-3-----------------|-----------3----|
|
| Gtr III
| S S S S Q +H S E. +Q H
|-------------------|----------------|
|-3-4-3-1-3--(3)----|---1--(1)--3----|
|-------------------|----------------|
|-------------------|----------------|
|-------------------|----------------|
|-------------------|----------------|


Q S S E +S S E +S S E +H Q E E
|-1----0---0-(0)-------------|---------------3---------|
|------------------3-(3)---5-|-(5)---------------------|
|----------------------------|-----------5-------------|
|----------------------------|-------------------------|
|----------------------------|-------------------------|
|----------------------------|-------------------------|
|
| Q S S E E E E E Q. E Q Q
|-1----0---0-----------------|---------------3---------|
|-3----1---1-------3-------5-|-------------------------|
|-2----0---0-------4-------5-|-----------5-------------|
|------------------5-------5-|-------5-----------------|
|-3-----------3--------------|-------------------------|
|----------------------------|--0--------0-------------|
|
| S E. S S E +E E +E E +Q. S S Q +S E.
|---1--0---0-(0)-------------|------------------3------|
|------------------3-(3)---5-|-(5)---------------------|
|----------------------------|-------5---5--(5)--------|
|----------------------------|-------------------------|
|----------------------------|-------------------------|
|----------------------------|-------------------------|


Q S S E +E E +Q Q. S S Q +S S E Q S S E +E E +S S E
|-3--1---1-(1)-0-(0)--|-0-----1-0-------------|--1--0---0-(0)-------------|
|---------------------|-----------3---(3)-----|---------------3---(3)---5-|
|---------------------|-----------5---(5)-----|---------------------------|
|---------------------|-----------------------|---------------------------|
|---------------------|-----------------------|---------------------------|
|---------------------|-----------------------|---------------------------|
|
| Q S S E E E +Q Q Q Q. E Q E E Q E E
|-3--1---1-----0-(0)--|-0---------------------|--8---------8--------------|
|-1------1------------|-1---------3-----------|--8---------8------------5-|
|-2-------------------|-2---------4-----------|--9------9--7--------------|
|---------------------|-----------5-----------|-10---------9--------------|
|---------------------|-----------------------|-10------------------------|
|-1---------1---------|-3---------3-----------|--8---------7--------------|
|
| Q S S E +E E +Q Q. S S Q Q Q S S E +E. S +E E
|-3--1---1-(1)-0-(0)--|-0-----1-0-------------|--1--0---0-(0)-------------|
|---------------------|-----------3----3------|-----------------3-(3)---5-|
|---------------------|-----------5-----------|---------------------------|
|---------------------|-----------------------|---------------------------|
|---------------------|-----------------------|---------------------------|
|---------------------|-----------------------|---------------------------|


+Q +S S S S Q E E Q S S E +Q Q
|--------------------------3-----|-3--1---1-(1)----0---|
|-(5)--(5)-----------------------|---------------------|
|------------5----5--------------|---------------------|
|--------------------------------|---------------------|
|--------------------------------|---------------------|
|--------------------------------|---------------------|
|
| Q. E +S S S S E S S Q S S E E E Q
|--5-----------------------------|-0--1------------0---|
|--------------------------8-5---|-1------6-----1------|
|--5-----------------------5-----|-2---------2---------|
|--7---------5---(5)---7---------|-3------3------------|
|--0-----------------------------|---------------------|
|--------------------------------|-1-------------------|
|
| +Q. S S Q E E Q S S E +E E +Q
|--------------------------3-----|-3--1---1-(1)-0-(0)--|
|-(5)----------------------------|---------------------|
|------------5----5--------------|---------------------|
|--------------------------------|---------------------|
|--------------------------------|---------------------|
|--------------------------------|---------------------|


Q +S S S S H H +H
|-0---(0)---1-0---------|---------------------|
|---------------3-------|-1--------(1)--------|
|-----------------------|---------------------|
|-----------------------|---------------------|
|-----------------------|---------------------|
|-----------------------|---------------------|
|
| Q. E E E E E E E +Q Q Q
|-----------------------|---------------------|
|-3---------------------|---1-(1)-------------|
|-4---------------------|-----------0---------|
|-5---------------5-7-9-|-----------3---------|
|---------------5-------|-3-------------------|
|-3---------3-----------|-1-------------------|
|
| H Q Q Q Q Q S S E
|-0---------------------|---------------------|
|---------------3-------|-------------------3-|
|-----------------------|------5----5---5-----|
|-------------------5---|-7-------------------|
|-----------------------|---------------------|
|-----------------------|---------------------|


Gtr II
E E +E E Q S S S S
|--------------------------------|
|--------3-(3)---3---------------|
|---4----2-(2)---2------2----4---|
|---5------------5---------------|
|---5----------------------------|
|---3----------------------------|
|
| Gtr III
| +Q Q Q +S S S S
|--------------------------------|
|--(3)------5----5-----(5)-------|
|----------------------------5---|
|--------------------------------|
|--------------------------------|
|--------------------------------|
|
| Gtr IV
| +S S E Q E E +Q
|--------------------------------|
|--------------------------------|
|--------------------------------|
|-(22)-------------24-(24)-------|
|--------------------------------|
|--------------------------------|


H Q +S S E E E +Q S S E S S E
|--------------------------|-------------------------------|
|---5--------3---(3)-------|---1---------------------------|
|---5--------4---(4)-------|---2---------------------2-----|
|---5--------5---(5)-------|---2--2-(2)------------2-------|
|---3--------2---(2)-------|---0--------------0------------|
|--------------------------|-------------------------------|
|
| Q Q Q Q Q S S E +Q E E
|--------3---3----3--------|---5---------------------------|
|---5----------------------|---------5----3--(3)-----1-----|
|--------------------------|-----------------------------0-|
|--------------------------|-------------------------------|
|--------------------------|-------------------------------|
|--------------------------|-------------------------------|
|
| +Q Q Q +S S E +H +H
|--------------------------|-------------------------------|
|--------------------------|-------------------------------|
|-------21--19--(19)-17-17-|-(17)-----------(17)-----------|
|-(24)---------------------|-------------------------------|
|--------------------------|-------------------------------|
|--------------------------|-------------------------------|


E E +Q S S E Q Q. E E E S S E
|-------------------------|--0---------------------|
|---1-(1)-----1-----------|--0---------------5-----|
|---0-(0)-----0-----------|--0----------0--4-------|
|-3-----------3-----------|--2-------2-------------|
|-3-----------------------|------------------------|
|-1-----------------------|--0---------------------|
|
| Q S S E Q S S E +Q S S E +Q. E
|-----------------------1-|-(1)--0-----------------|
|------1------1-----1-----|----------3-(3)-------5-|
|-2-----------------------|------------------------|
|-------------------------|------------------------|
|-------------------------|------------------------|
|-------------------------|------------------------|
|
| W W
|-------------------------|------------------------|
|-------------------------|-17---------------------|
|-------------------------|------------------------|
|-------------------------|------------------------|
|-------------------------|------------------------|
|-------------------------|------------------------|


Q +S S E E S S S S S S
|------------------------------|
|----------------------3-------|
|--7---(7)---------2-----------|
|--7---(7)------3--------------|
|--8---(8)---5-------------5---|
|-10--(10)---------------------|
|
| H +E E Q
|------------------------------|
|--3-----------(3)-------------|
|------------------------------|
|------------------------------|
|------------------------------|
|------------------------------|
|
| W
|------------------------------|
|-15---------------------------|
|------------------------------|
|------------------------------|
|------------------------------|
|------------------------------|


Q +S S E Q +S S E E E +Q Q +S S E
|-------------------------|----------------------|
|-------------------------|---1-(1)---1--(1)-----|
|--7---(7)-----4--(4)-----|-0---------2--(2)-----|
|--7---(7)-----5--(5)-----|-3---------3--(3)-----|
|--8---(8)-----7--(7)-----|-3--------------------|
|-10--(10)-----0--(0)-----|----------------------|
|
| W Q E E Q E E
|-------------------------|---------------1------|
|-------------------------|------1----1----------|
|-------------------------|-2--------------------|
|-------------------------|----------------------|
|-------------------------|----------------------|
|-------------------------|----------------------|


Q. E Q. E H E E S S E
|------------------|----------------|
|-1---------0------|-1--------------|
|-2---------0------|-0--------0-----|
|------------------|-2------2-------|
|------------------|-3----3---------|
|-3----------------|-3--------------|
|
| E E Q +Q. E W
|-1--0-------------|----------------|
|------3---(3)---1-|----------------|
|------------------|----------------|
|------------------|----------------|
|------------------|----------------|
|------------------|----------------|


Q Q Q Q H +E E S S E
|--------------------------|---------------------|
|-1-----------------1------|--1-----(1)----------|
|-0-----------------0------|---------------------|
|-2-----------------2------|------------3-5------|
|-3------------------------|---------------------|
|-3-----------------0------|---------------------|
|
| W W
|--------------------------|---------------------|
|--------------------------|---------------------|
|--------------------------|---------------------|
|--------------------------|---------------------|
|--------------------------|---------------------|
|--------------------------|---------------------|
|
| Gtr IV
| E S S S S E +Q Q H +Q. E
|-----------17-20-(20)-----|---------------------|
|-----17-18-20-24-(24)-----|---------------------|
|-----19-------------------|------------------21-|
|--------------------------|-22----(22)----------|
|--------------------------|---------------------|
|--------------------------|---------------------|


W +W
|-----------|---------------------------|
|-----------|---------------------------|
|--2--------|--(2)----------------------|
|--5--------|--(5)----------------------|
|--5--------|--(5)----------------------|
|--3--------|--(3)----------------------|
|
| W H Q E S S
|-----------|---------------------------|
|-----------|---------------------------|
|-----------|----------------------0----|
|-----------|---------------------------|
|-----------|---------------------------|
|-----------|---------------------------|
|
| W +H +Q +S S E
|-----------|---------------------------|
|-----------|---------------------------|
|-19--------|-(19)----(19)--(19)--------|
|-----------|---------------------------|
|-----------|---------------------------|
|-----------|---------------------------|


H +S S E E S S
|-------------------------------|
|--1------------(1)-------------|
|--0------------(0)---------0---|
|--2------------(2)-----2-------|
|--3------------(3)---3---------|
|-------------------------------|
|
| Q S S E +Q S S E
|---------------------------1---|
|--------1---1--(1)-----3-------|
|--0----------------------------|
|-------------------------------|
|-------------------------------|
|-------------------------------|
|
| E E Q +Q Q
|----20-------------------------|
|-------------------------------|
|-17----------------------------|
|-------22-----(22)-------------|
|-------------------------------|
|-------------------------------|


Q E E E E S S E H +E S S E S S
|--------------------------|----------------------------|
|--1---------------1-------|-3---------(3)---------3----|
|--0-------------0---------|-3---------(3)---------3----|
|--2----------2------------|-5---------(5)---------5----|
|--3-------3---------------|----------------------------|
|--------------------------|-3---------(3)-3------------|
|
| +Q S S E +Q S S S S E E E S S +E. S +E E
|-(1)--0-------------------|----------------------------|
|----------3-(3)---1---1---|-1--------------------------|
|--------------------------|-----3---3-(3)---2-(2)-3----|
|--------------------------|----------------------------|
|--------------------------|----------------------------|
|--------------------------|----------------------------|
|
| W W
|--------------------------|----------------------------|
|--------------------------|----------------------------|
|--------------------------|----------------------------|
|--------------------------|----------------------------|
|--------------------------|----------------------------|
|--------------------------|----------------------------|


E S S E E E E Q H +S S S S S S S S
|-----------------------|----------------------------|
|-----3-----3-----------|-1--------(1)---------------|
|-----3-----3-----3-----|-0--------(0)-----------0---|
|-----5-----5---5-------|-2--------(2)-------2-------|
|-----------------------|-3--------(3)---3-----------|
|-------------3---------|----------------------------|
|
| +E. S Q Q E S S Q S S E +Q S S E
|-----------------------|------------------------1---|
|-------3---------------|--------------------3-------|
|-(3)-------------------|----5---5-(5)---------------|
|-------------------5---|-5--------------------------|
|-----------------------|----------------------------|
|-----------------------|----------------------------|


E E Q E E Q
|----------------0----------|
|--1-------------1----------|
|--0-------------0----------|
|--2-------------2----------|
|--3------------------------|
|---------------------------|
|
| +Q +S S E +E S S E E
|-(1)---(1)-0---------------|
|-------------3-(3)-5-3-1---|
|-------------------------0-|
|---------------------------|
|---------------------------|
|---------------------------|


H +E E Q E E +S S E Q Q H +E E E E
|-1--------(1)---------|--1--------------3-----|--5------------(5)----------1-|
|-3--------(3)---------|--3------------1-5-----|--6------------(6)-----3------|
|-3--------(3)-0-3-----|--3--------------2-----|--7------------(7)-3----------|
|-5--------(5)---------|-----3---(3)--------3--|--8------------(8)------------|
|----------------------|-----------------------|------------------------------|
|----------------------|--3--------------5-----|--6------------(6)------------|
|
| Q S S E +Q S S E +E. S E E H Q S S E +Q S S E
|-3--1---1-(1)---0---0-|-(0)---1--0------------|--3-----1---1--(1)-----0----0-|
|----------------------|----------3------------|------------------------------|
|----------------------|-----------------------|------------------------------|
|----------------------|-----------------------|------------------------------|
|----------------------|-----------------------|------------------------------|
|----------------------|-----------------------|------------------------------|
|
| Gtr IV
| W W E E Q +Q +S S E
|----------------------|-----------------------|----20------------------------|
|----------------------|-----------------------|------------------------------|
|----------------------|-----------------------|------------------------------|
|----------------------|-----------------------|-22----22-----(22)---(22)-----|
|----------------------|-----------------------|------------------------------|
|----------------------|-----------------------|------------------------------|


+E E +E E +E E +Q
|-(1)-5-(5)------------------------|
|-------------6-(6)----------------|
|-------------------7---(7)--------|
|----------------------------------|
|----------------------------------|
|----------------------------------|
|
| +Q S S E +E S S S S S S
|-(0)------------------------------|
|--------3----3-(3)-5-3--5-----5---|
|------------------------5---------|
|----------------------------------|
|----------------------------------|
|----------------------------------|
|
| H Q E E
|----------------------------------|
|----------------------------------|
|----------------------------------|
|-----------------------------24---|
|----------------------------------|
|----------------------------------|


H +E E E E +E E E E E E Q
|--3--------(3)-------0-|-(0)-3----------------------|
|--5--------(5)---1-----|-------5-----------5--------|
|--5--------(5)-2-------|-----------5-----5----------|
|--7--------(7)---------|--------------7-------------|
|--0--------(0)---------|----------------------------|
|-----------------------|----------------------------|
|
| Q S S E Q S S E +Q S S E +Q S S E
|--3------------------5-|-(5)------------------------|
|-----5------5----5-----|-------5---3-(3)---1--------|
|-----------------------|-----------------------0----|
|-----------------------|----------------------------|
|-----------------------|----------------------------|
|-----------------------|----------------------------|
|
| W H Q E S S
|-----------------------|----------------------------|
|-----------------------|----------------------------|
|-----------------------|-------------------------19-|
|-22--------------------|-------------------------22-|
|-----------------------|----------------------------|
|-----------------------|----------------------------|


H +E E E E S S S S E S S E E E E
|--3-------------(3)---------|---3---------------------------------|
|--4-------------(4)---1-----|---4----4-------4-------4------------|
|--5-------------(5)-1-----1-|---5----5-------5-------5-------5----|
|--6-------------(6)---------|-----------------------------6-------|
|----------------------------|-------------------------------------|
|--4-------------(4)---------|--------------------------------4----|
|
| Q S S E +Q S S E +Q S S E S S S S +E E
|--3------1---1--(1)---------|-------------------------------------|
|----------------------4---4-|--(4)-------3-------3-4-3-1-(1)------|
|----------------------------|--------------------------------0----|
|----------------------------|-------------------------------------|
|----------------------------|-------------------------------------|
|----------------------------|-------------------------------------|
|
| E. S Q +H +Q. E Q E S S
|----------------------------|-------------------------------------|
|----------------------------|----------------------------------15-|
|-20--19-17-----(17)---------|-(17)--------------------------------|
|----------------------------|-------------------------------------|
|----------------------------|-------------------------------------|
|----------------------------|-------------------------------------|


W
|--3----------------------------|
|--3----------------------------|
|--5----------------------------|
|--5----------------------------|
|-------------------------------|
|--3----------------------------|
|
| H E S S +Q
|--8-------------8----10-(10)---|
|-------------------------------|
|-------------------------------|
|-------------------------------|
|-------------------------------|
|-------------------------------|
|
| S E. +Q +H
|-------------------------------|
|-13-15--(15)--(15)-------------|
|-------------------------------|
|-------------------------------|
|-------------------------------|
|-------------------------------|


Gtr I
H H Q S S E +S S E +S S E
|-----------------|-1----0---0-(0)-------------|
|--1-------3------|------------------3-(3)---5-|
|-----------------|----------------------------|
|-----------------|----------------------------|
|-----------------|----------------------------|
|-----------------|----------------------------|
|
| Gtr II
| H H Q S S E E E E E
|----------3------|-1----0---0-----------------|
|--6-------3------|-3----1---1-------3-------5-|
|--5-------4------|-2----0---0-------4-------5-|
|--7--------------|------------------5-------5-|
|--0--------------|-3-----------3--------------|
|----------3------|----------------------------|
|
| Gtr III
| E E Q Q. E S E. S S E +E E +E E
|-----------------|----------------------------|
|-12-10-8---------|---6--5---5-(5)---3-(3)---5-|
|----------7------|----------------------------|
|-10--------------|----------------------------|
|-----------------|----------------------------|
|-----------------|----------------------------|


+H Q E E Q S S E +E E +Q
|---------------3-------|-3--1---1-(1)-0-(0)--|
|-(5)-------------------|---------------------|
|-----------5-----------|---------------------|
|-----------------------|---------------------|
|-----------------------|---------------------|
|-----------------------|---------------------|
|
| Q. E Q Q Q S S E E E +Q
|---------------3-------|-3--1---1-----0-(0)--|
|-----------------------|-1------1------------|
|-----------5-----------|-2-------------------|
|-------5---------------|---------------------|
|-----------------------|---------------------|
|--0--------0-----------|-1---------1---------|
|
| +Q. S S Q +S E. Q S S E +E E +Q
|------------------3----|-3--1---1-(1)-0-(0)--|
|-(5)-------------------|---------------------|
|-------5---5--(5)------|---------------------|
|-----------------------|---------------------|
|-----------------------|---------------------|
|-----------------------|---------------------|


Q. S S Q +S S E Q S S E +E E +S S E
|-0-----1-0-------------|--1--0---0-(0)-------------|
|-----------3---(3)-----|---------------3---(3)---5-|
|-----------5---(5)-----|---------------------------|
|-----------------------|---------------------------|
|-----------------------|---------------------------|
|-----------------------|---------------------------|
|
| Q Q Q. E Q E E Q E E
|-0---------------------|--8---------8--------------|
|-1---------3-----------|--8---------8------------5-|
|-2---------4-----------|--9------9--7--------------|
|-----------5-----------|-10---------9--------------|
|-----------------------|-10------------------------|
|-3---------3-----------|--8---------7--------------|
|
| Q. S S Q Q Q S S E +E. S +E E
|-0-----1-0-------------|--1--0---0-(0)-------------|
|-----------3----3------|-----------------3-(3)---5-|
|-----------5-----------|---------------------------|
|-----------------------|---------------------------|
|-----------------------|---------------------------|
|-----------------------|---------------------------|


+Q +S S S S Q E E
|--------------------------3------|
|-(5)--(5)------------------------|
|------------5----5---------------|
|---------------------------------|
|---------------------------------|
|---------------------------------|
|
| Q. E +S S S S E S S
|--5------------------------------|
|--------------------------8-5----|
|--5-----------------------5------|
|--7---------5---(5)---7----------|
|--0------------------------------|
|---------------------------------|
|
| +Q. S S Q E E
|--------------------------3------|
|-(5)-----------------------------|
|------------5----5---------------|
|---------------------------------|
|---------------------------------|
|---------------------------------|


Q S S E +Q Q Q +S S S S H
|-3--1---1-(1)----0---|-0---(0)---1-0---------|
|---------------------|---------------3-------|
|---------------------|-----------------------|
|---------------------|-----------------------|
|---------------------|-----------------------|
|---------------------|-----------------------|
|
| Q S S E E E Q Q. E E E E E
|-0--1------------0---|-----------------------|
|-1------6-----1------|-3---------------------|
|-2---------2---------|-4---------------------|
|-3------3------------|-5---------------5-7-9-|
|---------------------|---------------5-------|
|-1-------------------|-3---------3-----------|
|
| Q S S E +E E +Q H Q Q
|-3--1---1-(1)-0-(0)--|-0---------------------|
|---------------------|---------------3-------|
|---------------------|-----------------------|
|---------------------|-------------------5---|
|---------------------|-----------------------|
|---------------------|-----------------------|


H +H W
|---------------------|--------------------------|
|-1--------(1)--------|--------------------------|
|---------------------|--------------------------|
|---------------------|--------------------------|
|---------------------|--------------------------|
|---------------------|--------------------------|
|
| E E +Q Q Q E E +E E Q S S S S
|---------------------|--------------------------|
|---1-(1)-------------|-----3-(3)---3------------|
|-----------0---------|--4--2-(2)---2---2----4---|
|-----------3---------|--5----------5------------|
|-3-------------------|--5-----------------------|
|-1-------------------|--3-----------------------|
|
| Q Q Q S S E +Q Q Q +S S S S
|---------------------|--------------------------|
|-------------------3-|-(3)----5----5--(5)-------|
|------5----5---5-----|----------------------5---|
|-7-------------------|--------------------------|
|---------------------|--------------------------|
|---------------------|--------------------------|


Gtr II
H Q +S S E E E +Q S S E S S E
|--------------------------|-------------------------------|
|---5--------3---(3)-------|---1---------------------------|
|---5--------4---(4)-------|---2---------------------2-----|
|---5--------5---(5)-------|---2--2-(2)------------2-------|
|---3--------2---(2)-------|---0--------------0------------|
|--------------------------|-------------------------------|
|
| Gtr III
| Q Q Q Q Q S S E +Q E E
|--------3---3----3--------|---5---------------------------|
|---5----------------------|---------5----3--(3)-----1-----|
|--------------------------|-----------------------------0-|
|--------------------------|-------------------------------|
|--------------------------|-------------------------------|
|--------------------------|-------------------------------|
|
| Gtr IV
| +Q Q Q +S S E +H +H
|--------------------------|-------------------------------|
|--------------------------|-------------------------------|
|-------21--19--(19)-17-17-|-(17)-----------(17)-----------|
|-(24)---------------------|-------------------------------|
|--------------------------|-------------------------------|
|--------------------------|-------------------------------|


E E +Q S S E Q Q. E E E S S E
|-------------------------|--0---------------------|
|---1-(1)-----1-----------|--0---------------5-----|
|---0-(0)-----0-----------|--0----------0--4-------|
|-3-----------3-----------|--2-------2-------------|
|-3-----------------------|------------------------|
|-1-----------------------|--0---------------------|
|
| Q S S E Q S S E +Q S S E +Q. E
|-----------------------1-|-(1)--0-----------------|
|------1------1-----1-----|----------3-(3)-------5-|
|-2-----------------------|------------------------|
|-------------------------|------------------------|
|-------------------------|------------------------|
|-------------------------|------------------------|
|
| W W
|-------------------------|------------------------|
|-------------------------|-17---------------------|
|-------------------------|------------------------|
|-------------------------|------------------------|
|-------------------------|------------------------|
|-------------------------|------------------------|


Q +S S E E S S S S S S
|------------------------------|
|----------------------3-------|
|--7---(7)---------2-----------|
|--7---(7)------3--------------|
|--8---(8)---5-------------5---|
|-10--(10)---------------------|
|
| H +E E Q
|------------------------------|
|--3-----------(3)-------------|
|------------------------------|
|------------------------------|
|------------------------------|
|------------------------------|
|
| W
|------------------------------|
|-15---------------------------|
|------------------------------|
|------------------------------|
|------------------------------|
|------------------------------|


Q +S S E Q +S S E E E +Q Q +S S E
|-------------------------|----------------------|
|-------------------------|---1-(1)---1--(1)-----|
|--7---(7)-----4--(4)-----|-0---------2--(2)-----|
|--7---(7)-----5--(5)-----|-3---------3--(3)-----|
|--8---(8)-----7--(7)-----|-3--------------------|
|-10--(10)-----0--(0)-----|----------------------|
|
| W Q E E Q E E
|-------------------------|---------------1------|
|-------------------------|------1----1----------|
|-------------------------|-2--------------------|
|-------------------------|----------------------|
|-------------------------|----------------------|
|-------------------------|----------------------|
|
| W W
|-------------------------|----------------------|
|-------------------------|----------------------|
|-------------------------|----------------------|
|-------------------------|----------------------|
|-------------------------|----------------------|
|-------------------------|----------------------|


Q. E Q. E W +W Q. E Q +S S S S
|------------------|----------|------------|----------------------------|
|-1---------0------|-1--------|-(1)--------|-3--------3------(3)--------|
|-2---------0------|-0--------|-(0)--------|-2--------2------(2)--------|
|------------------|-2--------|-(2)--------|-4--------4------(4)---0----|
|------------------|-3--------|-(3)--------|-5--------5------(5)--------|
|-3----------------|-3--------|-(3)--------|----------------------------|
|
| E E Q +Q. E W W Q E E +S S E +S S E
|-1--0-------------|----------|------------|----------------------------|
|------3---(3)---1-|----------|------------|-----3-5-(5)---7-(7)--------|
|------------------|----------|------------|----------------------------|
|------------------|----------|------------|----------------------------|
|------------------|----------|------------|----------------------------|
|------------------|----------|------------|----------------------------|


Q. E E E E S S Q +S S E +S S E +S S S S Q Q Q +S S E
|---------------------|------------------------------|------------------|
|-3-------------3-----|-2--(2)---3-(3)---2-(2)-------|-------2--(2)-----|
|-2-----------2-------|-2--(2)---2-(2)---2-(2)-------|-4-----2--(2)-----|
|-4--------4----------|-2--(2)---2-(2)---2-(2)---2---|-5-----2--(2)-----|
|-2-----2---------2---|-0--(0)-----------------------|-5-----0--(0)---0-|
|---------------------|------------------------------|-3----------------|
|
| Q E E +E E Q Q E E +S S E E E H Q +S S E
|---------------------|------------------------------|-7-----5--(5)-----|
|-------5-(5)-7-------|----------5-(5)---7-----------|------------------|
|-----7---------------|-----7--------------------7---|------------------|
|---------------------|------------------------------|------------------|
|---------------------|------------------------------|------------------|
|---------------------|------------------------------|------------------|


Gtr I
W W
|-------------------------|-----------------------------|
|-------------------------|-----------------------------|
|-------------------------|-----------------------------|
|-------------------------|-----------------------------|
|-------------------------|-----------------------------|
|-------------------------|-----------------------------|
|
| Gtr II
| Q. E E E E E E S S E E E E E S S
|-------------------------|-----------------------------|
|-3----------------3------|-----------------------------|
|-2-------------2---------|-7-7-----7-------------------|
|-4-----0--4--------------|-7-7-----7----------7--------|
|-5---------------------5-|-9-9-----9-------9-----------|
|-------------------------|-7----------7------------7---|
|
| Gtr III
| Q E E +S S E +S S E Q E E +S S E +S S E
|-------------------------|-----------------------------|
|-----3-5-(5)---7-(7)-----|---------5-(5)---7-(7)-------|
|-------------------------|-------7---------------------|
|-------------------------|-----------------------------|
|-------------------------|-----------------------------|
|-------------------------|-----------------------------|


W H H
|--------------------|----------------|
|--------------------|-3-----5--------|
|--------------------|----------------|
|--------------------|----------------|
|--------------------|----------------|
|--------------------|----------------|
|
| Q. E E E +E S S Q Q Q. E
|--------------------|----------------|
|--------------------|-------2--------|
|-6--------------6---|-4-----2--------|
|-7--------7-(7)-----|-5-----2--------|
|-7------7-----------|-5-----0--------|
|-5----5-------------|-3--------------|
|
| W H H
|--------------------|----------------|
|--------------------|-------5--------|
|--------------------|-7--------------|
|--------------------|----------------|
|--------------------|----------------|
|--------------------|----------------|


Q S S E +S S E +S S E +H Q E E Q S S E +E E +Q
|-3----2---2-(2)-------------|---------------5-------|-5--3---3-(3)-2-(2)--|
|------------------5-(5)---7-|-(7)-------------------|---------------------|
|----------------------------|-----------7-----------|---------------------|
|----------------------------|-----------------------|---------------------|
|----------------------------|-----------------------|---------------------|
|----------------------------|-----------------------|---------------------|
|
| Q S S E E E E E Q. E Q Q Q S S E E E +Q
|-3----2---2-------0-------2-|---------------5-------|-5--3---3-----2-(2)--|
|-5----3---3-------2-------3-|-----------3-----------|-3------3------------|
|-4----2---2-------2-------2-|-------2---------------|-4-------------------|
|-0-----------0--------------|-----------------------|---------------------|
|----------------------------|-----------------------|---------------------|
|----------------------------|--2--------2-----------|-3---------3---------|
|
| S E. S S E +E E +E E +Q. S S Q +S E. Q S S E +E E +Q
|---3--2---2-(2)-------------|------------------5----|-5--3---3-(3)-2-(2)--|
|------------------5-(5)---7-|-(7)-------------------|---------------------|
|----------------------------|-------7---7--(7)------|---------------------|
|----------------------------|-----------------------|---------------------|
|----------------------------|-----------------------|---------------------|
|----------------------------|-----------------------|---------------------|


Q. S S Q +S S E Q S S E +E E +S S E
|-2-----3-2-0---(0)-----|--3--2----2-(2)-------------|
|-----------3---(3)-----|----------------5---(5)---7-|
|-----------------------|----------------------------|
|-----------------------|----------------------------|
|-----------------------|----------------------------|
|-----------------------|----------------------------|
|
| Q Q Q. E Q E E Q E E
|-2---------0-----------|-10---------10--------------|
|-3---------2-----------|-10---------10------------7-|
|-4---------2-----------|-11------11--9--------------|
|-----------------------|-12---------11--------------|
|-----------0-----------|-12-------------------------|
|-5---------------------|-10----------9--------------|
|
| Q. S S Q Q Q S S E +E. S +E E
|-2-----3-2-0-----------|--3--2----2-(2)-------------|
|-----------3----5------|------------------5-(5)---7-|
|-----------------------|----------------------------|
|-----------------------|----------------------------|
|-----------------------|----------------------------|
|-----------------------|----------------------------|


+Q +S S S S Q E E
|---------------------------5------|
|-(7)--(7)-------------------------|
|------------7----7----------------|
|----------------------------------|
|----------------------------------|
|----------------------------------|
|
| Q. E +S S S S E S S
|--7-------------------------------|
|--0-----------------------10-7----|
|--7------------------------7------|
|------------7---(7)---9-----------|
|----------------------------------|
|--7-------------------------------|
|
| +Q. S S Q E E
|---------------------------5------|
|-(7)------------------------------|
|------------7----7----------------|
|----------------------------------|
|----------------------------------|
|----------------------------------|


Q S S E +Q Q Q +S S S S H
|-5--3---3-(3)----2---|-2---(2)---3-2---------|
|---------------------|---------------5-------|
|---------------------|-----------------------|
|---------------------|-----------------------|
|---------------------

-----------------------------
|  акорди, навчання, відео  |
|     http://akords.org     |
-----------------------------

 (голосів: 0)
   Інші пісні:
  • Get Down
  • Wheels Of Confusion
  • You Wont Change Me
  • The One
  • Larger Than Life 5
  •  
    Шановний відвідувач, Ви зайшли на сайт як незареєстрований користувач. Ми рекомендуємо Вам реєструватися або зайти на сайт під своїм ім'ям.

    Додавання коментаря

    Ім'я:*
    E-Mail:*
    Коментар:
    Введіть два слова, показані на зображенні: *
     
      

    BLIBL-створити сайт безкоштовно