Зробити стартовою  |  Додати в вибране
 
Пошук по сайту:  
  логін: пароль:  
    Реєстрація на сайті   Нагадати пароль?    

Видавництво Симфонія | Книжкова фабрика

akords.org » B » Backstreet Boys » All I Have To Give 7
Знайти необхідні акорди

Backstreet Boys - All I Have To Give 7  табулатура

All I Have To Give Bass Tab by Backstreet Boys, www.Ultimate-Guitar.Com

tf_artist = "Backstreet Boys"; tf_songtitle = "All I Have To Give"; altSend "All I Have To Give" to Cell Phonealt
Tuning : E A D G 	Time Signature: 4/4


| | | | | | | |
|--------------------------------|--------------------------------|
|--------------------------------|--------------------------------|
|--------------------------------|--------------------------------|
|----------------------------1---|2-----------4---------------4---|


| | | | | | | |
|--------------------------------|--------------------------------|
|--------------------------------|----------------------------1---|
|----------------------------1---|2-----------2-----------4-------|
|1-----------2-----------2-------|--------------------------------|


| | | | | | | |
|--------------------------------|--------------------------------|
|--------------------------------|--------------------------------|
|--------------------------------|--------------------------------|
|------------1---------------1---|2-----------4---------------4---|


| | | | | | | |
|--------------------------------|--------------------------------|
|--------------------------------|--------------------------------|
|1-----------1-------1-----------|--------------------------------|
|----------------------------4---|2-----------4-------4-----------|


| | | | | | | |
|--------------------------------|--------------------------------|
|--------------------------------|--------------------------------|
|--------------------------------|----------------------------1---|
|1-----------2---------------2---|2-----------4-------------------|


| | | | | | | |
|--------------------------------|--------------------------------|
|--------------------------------|--------------------------------|
|2-----------1-------------------|----------------0-----------0---|
|----------------------------2---|1-------------------------------|


| | | | | | | |
|--------------------------------|--------------------------------|
|--------------------------------|--------------------------------|
|1-------------------------------|----------------------------1---|
|----------------------------4---|2-----------4-----------4-------|


| | | | | | | |
|--------------------------------|--------------------------------|
|--------------------------------|--------------------------------|
|3-----------4-----------4---1---|2-----------2-------------------|
|--------------------------------|------------------------2-------|


| | | | | | | |
|--------------------------------|--------------------------------|
|--------------------------------|--------------------------------|
|--------------------------------|--------------------------------|
|4-----------------------1-------|2-----------4---------------4---|


| | | | | | | |
|--------------------------------|--------------------------------|
|--------------------------------|--------------------------------|
|1-----------1-----------1-------|--------------------------------|
|----------------------------4---|2-----------4-----------4---2---|


| | | | | | | |
|--------------------------------|--------------------------------|
|--------------------------------|--------------------------------|
|--------------------1-----------|--------------------------------|
|1-----------2---------------1---|2-----------4---------------4---|


| | | | | | | |
|--------------------------------|3-------------------------------|
|--------------------------------|--1-----------------------------|
|1-----------1---------------1---|----4-3-1---3-------------------|
|------------------------1-------|--------------------------------|




| | | | | | | |
|--------------------------------|--------------------------------|
|--------------------------------|--------------------------------|
|4-----------------------1-------|3-----------4-----------4---1---|
|------------2-------------------|--------------------------------|

| | | | | | | |
|--------------------------------|--------------------------------|
|--------------------------------|--------------------------------|
|--------------------------------|1-----------3---------------3---|
|2-------------------2-------4---|--------------------------------|


| | | | | | | |
|--------------------------------|--------------------------------|
|--------------------------------|--------------------------------|
|4---------------------------1---|3-----------4-----------4-------|
|--------1---2-----------4-------|--------------------------------|


| | | | | | | |
|--------------------------------|--------------------------------|
|--------------------------------|--------------------------------|
|2-----------2-----------2---1---|----------------1---------------|
|--------------------------------|4---------------------------4---|


| | | | | | | |
|--------------------------------|--------------------------------|
|--------------------------------|--------------------------------|
|--------------------------------|--------------------------------|
|2-------------------------------|--------------------------------|


| | | | | | | |
|--------------------------------|--------------------------------|
|--------------------------------|--------------------------------|
|--------------------------------|----------------------------1---|
|--------------------------------|1-----------2-----------4-------|


| | | | | | | |
|--------------------------------|--------------------------------|
|--------------------------------|--------------------------------|
|--------------------------------|--------------------------------|
|2-----------4-------------------|1-----------2---2---------------|


| | | | | | | |
|--------------------------------|--------------------------------|
|--------------------------------|--------------------------------|
|2-----------2---1-----------1---|--------------------------------|
|--------------------------------|4-----------4---4-------4-------|


| | | | | | | |
|--------------------------------|--------------------------------|
|--------------------------------|--------------------------------|
|--------------------------------|1---------------0---------------|
|2-----------4-------------------|--------------------------------|


| | | | | | | |
|--------------------------------|--------------------------------|
|--------------------------------|--------------------------------|
|------------0---------------0---|2-----------2-------2-------0---|
|3-------------------------------|--------------------------------|


| | | | | | | |
|--------------------------------|--------------------------------|
|--------------------------------|--------------------------------|
|------------0-------0-----------|--------------------------------|
|3-------------------------------|2-----------3---------------3---|


| | | | | | | |
|--------------------------------|--------------------------------|
|--------------------------------|------------0-----------0-------|
|------------0-----------0---2---|4---------------------------2---|
|3-------------------------------|--------------------------------|


| | | | | | | |
|--------------------------------|--------------------------------|
|--------------------------------|--------------------------------|
|3-----------3-------------------|0-------------------------------|
|------------------------3-------|------------------------2-------|


| | | |
|--------------------------------|
|0-------------------------------|
|--------------------------------|
|--------------------------------|

-----------------------------
|  акорди, навчання, відео  |
|     http://akords.org     |
-----------------------------

 (голосів: 0)
   Інші пісні:
  • All I Have To Give 2
  • Larger Than Life Bass
  • Give It Up
  • All I Have To Give 5
  • All I Have To Give 5
  •  
    Шановний відвідувач, Ви зайшли на сайт як незареєстрований користувач. Ми рекомендуємо Вам реєструватися або зайти на сайт під своїм ім'ям.

    Додавання коментаря

    Ім'я:*
    E-Mail:*
    Коментар:
    Введіть два слова, показані на зображенні: *
     
      

    BLIBL-створити сайт безкоштовно