Зробити стартовою  |  Додати в вибране
 
Пошук по сайту:  
  логін: пароль:  
    Реєстрація на сайті   Нагадати пароль?    

Видавництво Симфонія | Книжкова фабрика

akords.org » B » Backstreet Boys » All I Have To Give 3
Знайти необхідні акорди

Backstreet Boys - All I Have To Give 3  табулатура

INTRO of BacksTreeT BoiZ [all i have to give]
TabbEd by [joseph vee]

NoTe~** = Play with the song and EVENTUALLY you'll get the hang of it!!

E----------------------------------------------------------------|
B---3----2p3h2---------3---3---------3-----2p3h2-----2-----2/3---|
G---4----2-----2-----0---0---0-------4-----2------2--2-----2-----|
D------------------4---------------------------------------------|
A-----0----------2----------------------0------------------------|
E-3-------------------------------3------------------2--2--------|

This is prolly the closest tab you'll get to the intro!! =p
If u don't like it its not my problem.

Laay8erz!!!!

-----------------------------
|  акорди, навчання, відео  |
|     http://akords.org     |
-----------------------------

 (голосів: 0)
   Інші пісні:
  • All I Have To Give 5
  • Give It Up
  • All I Have To Give 6
  • All I Have To Give
  • All I Have To Give 5
  •  
    Шановний відвідувач, Ви зайшли на сайт як незареєстрований користувач. Ми рекомендуємо Вам реєструватися або зайти на сайт під своїм ім'ям.

    Додавання коментаря

    Ім'я:*
    E-Mail:*
    Коментар:
    Введіть два слова, показані на зображенні: *
     
      

    BLIBL-створити сайт безкоштовно