Зробити стартовою  |  Додати в вибране
 
Пошук по сайту:  
  логін: пароль:  
    Реєстрація на сайті   Нагадати пароль?    

Видавництво Симфонія | Книжкова фабрика

akords.org » B » Backstreet Boys » All I Have To Give 2
Знайти необхідні акорди

Backstreet Boys - All I Have To Give 2  табулатура

All I Have To Give Tab by Backstreet Boys, www.Ultimate-Guitar.Com

tf_artist = "Backstreet Boys"; tf_songtitle = "All I Have To Give"; altSend "All I Have To Give" to Cell Phonealt
Capo 1st
*notes relative to capo*
*incase you don't notice use your fingers not a pick*
*many of the bass notes are played fast and may not sound noticable*

E----------------------------------------------
B---1----1p0h1-----1-----1----1---0--------0---
G--------0-----0---------0-----------------0---
D---3------------------3------3---0----2-----3-
A----------------0---0-------------------------
E-1---3---------------------1---3-3--0---0---1-

This sounds pretty much correct to me
-Steven

-----------------------------
|  акорди, навчання, відео  |
|     http://akords.org     |
-----------------------------

 (голосів: 0)
   Інші пісні:
  • All I Have To Give 7
  • All I Have To Give
  • Larger Than Life Bass
  • Everybody 3
  • All I Have To Give 5
  •  
    Шановний відвідувач, Ви зайшли на сайт як незареєстрований користувач. Ми рекомендуємо Вам реєструватися або зайти на сайт під своїм ім'ям.

    Додавання коментаря

    Ім'я:*
    E-Mail:*
    Коментар:
    Введіть два слова, показані на зображенні: *
     
      

    BLIBL-створити сайт безкоштовно