Зробити стартовою  |  Додати в вибране
 
Пошук по сайту:  
  логін: пароль:  
    Реєстрація на сайті   Нагадати пароль?    

Видавництво Симфонія | Книжкова фабрика

akords.org » B » Backstreet Boys » All I Have To Give
Знайти необхідні акорди

Backstreet Boys - All I Have To Give  табулатура

first part of intro bsb "all i have to give"
Capo first fret
* notes not relative to capo
play it wit song to get rhythm at first
E---------------------------------------
B---2---2p1h2-----2-----2---2---1---2---
G-------1-----1---------1---------------
D---4-----------------4-----4---3---4---
A---------------1---1-------------------
E-2---4-------------------2---4---1---2-
since no one else tabbed the first intro part they cant talk!
sounds rite ta me! but uhh ya i dunno heh i kinda suck
-karatebob

-----------------------------
|  акорди, навчання, відео  |
|     http://akords.org     |
-----------------------------

 (голосів: 0)
   Інші пісні:
  • Going Away To College
  • Cacophony
  • Stiff Upper Lip
  • I Dont Give
  • Anthem Part Two
  •  
    Шановний відвідувач, Ви зайшли на сайт як незареєстрований користувач. Ми рекомендуємо Вам реєструватися або зайти на сайт під своїм ім'ям.

    Додавання коментаря

    Ім'я:*
    E-Mail:*
    Коментар:
    Введіть два слова, показані на зображенні: *
     
      

    BLIBL-створити сайт безкоштовно