Зробити стартовою  |  Додати в вибране
 
Пошук по сайту:  
  логін: пароль:  
    Реєстрація на сайті   Нагадати пароль?    

Видавництво Симфонія | Книжкова фабрика

akords.org » Б » Бутусов Вячеслав » Звездочка
Знайти необхідні акорди

Бутусов Вячеслав - Звездочка  Табулатура

E|-88-8-8-8--88-8-8-8--88-8-8-8|---------|--88-8-8-8--88-8-8-8-|
B|8--7-6-5--8--7-6-5--8--7-6-5-|---------|-8--7-6-5--8--7-6-5--|
G|-----------------------------|7654-7654|---------------------|

E|------------|--88-8-8-8--88-8-8-8|----54----75---15/1715--|
B|------------|-8--7-6-5--8--7-6-5-|---------------------------|
G|--7654-7654-|--------------------|---------------765---------|
D|------------|--------------------|-987----987----------------|

E|--88-8-8-53|-----------|
B|-8--7-6-----|653-531-310|

E|878-----878-----|
B|---8-------8----|
G|----9-------9---|
D|-----10------10-|

C G
С неба звездочка скатилась
G7 C
И сказала, чуть дыша:
"Я влюбилась в Самуила,
В Самуила Маршака.

E
Я давно его искала,
Am
Все моталась, все летала,
G
Лет прошло уже немало,
G7 C
Наконец-то нашла!

Dm
Он один мне всех дороже,
C
Он не мальчик, ну и что же,
G
Я ведь тоже не девица,
C
Слава Богу, мне семнадцатый век".

E|10-10----------53|12-12---------1715|
B|-----12-----------|-----13------------|
G|-------12---------|-------12----------|
D|---------14-12----|---------14-10-----|

E|10-10----------53|12-12---------1715|
B|-----12-----------|-----13------------|
G|-------12---------|-------12----------|
D|---------14-12----|---------14-10-----|

E|12-12---------54-|8-8---------75----|
B|-----12-----------|---10--------------|
G|-------13---------|-----9-------------|
D|---------14-9-----|------10-7---------|

E|10-10----------1715|12-12---------53|
B|-----12-------------|-----13----------|
G|-------12-----------|-------12--------|
D|---------14-12------|---------14-10---|

Самуил, услышав это,
Очень долго хохотал,
Ты смешнее всех на свете -
Развеселая вдова.

Уморила Самуила,
Укатала старика, -
Я давно уже на небе,
Прилетай-ка сюда,

2:|653-531-310-|

Ты искала слишком долго,
И нашла в стогу иголку,
Никакого в этом толку нет, звезда.
Возвращайся назад.

D|55443322-4433221-66554433-5544332|

E|12-12----------75|14-14----------1917|
B|-----14-----------|-----15-------------|
G|-------14---------|-------14-----------|
D|---------14-11----|---------16-12------|

E|12-12----------75|14-14----------1917|
B|-----14-----------|-----15-------------|
G|-------14---------|-------14-----------|
D|---------14-11----|---------16-12------|

D A
С неба звездочка упала,
A7 D
Зацепилась за крючок,
Отвиселась и сказала:
Здравствуй милый дурачок.

E|14-14----------76|10-10-----------97|
B|-----14-----------|-----12------------|
G|-------15---------|-------11----------|
D|---------16-9-----|---------12-9------|

E|12-12----------1917|14-14-----------75|
B|-----14-------------|-----15------------|
G|-------14-----------|-------14----------|
D|---------14-11------|---------16-12-----|

F#
Вот тебя-то я искала,
Hm
Мой любимый, дорогой,
A
Образ твой всегда печален и
A7 D
Я примчалась за тобой,

B|875-753-532|

Em
Я следила за тобою с высока,
Ты мне нравишься,
D
Но только вот беда,
A
Не умеешь ты летать, наверняка, -
D
Сокрушалась звезда
A
E|10-9-10---------10-9-10--------989-------989---------|
B|-------10--------------10---------10--------10-------|
G|---------11--11----------11--9------9--9------9------|
D|-----------12--------------12--------11--------11-12|

E|12-12----------75|14-14----------1917|
B|-----14-----------|-----15-------------|
G|-------14---------|-------14-----------|
D|---------14-11----|---------16-12------|

E|12-12----------75|14-14----------1917|
B|-----14-----------|-----15-------------|
G|-------14---------|-------14-----------|
D|---------14-11----|---------16-12------|

А я сяду на ракету,
И отправлюсь за звездой,
У меня жена и дети,
Я возьму их с собой.

E|-----------|10-9-10--------|
B|875-753-532|-------10------|
G|-----------|---------11--11|
D|-----------|-----------12--|

А звезда мне отвечала:
Стой-ка, стой!
Ты какой-то торопливый,
Милый мой.
Начинаем все сначала ла-ла-ла,
Повторяй-ка за мной:

E|--12--12 |--10--10 |-9-9 |
B|12--12--..|10--10--..|8-8-..|

"С неба звездочка упала-ла-ла-ла,
И решительно сказала-ла-ла-ла,
До свиданья, друг мой милый, дорогой,
Я прощаюсь с тобой"

D|77665544-6655443-77665544-6655443-7|

Мне пора бы домой...

-----------------------------
|  акорди, навчання, відео  |
|     http://akords.org     |
-----------------------------

 (голосів: 0)
   Інші пісні:
  • Звездочка
  • Everybodys Got Something To Hide Except Me And My Monkey
  • Звуковое письмо (2 варіант)
  • Танец на палубе тонущего корабля
  • Звезды
  •  
    Шановний відвідувач, Ви зайшли на сайт як незареєстрований користувач. Ми рекомендуємо Вам реєструватися або зайти на сайт під своїм ім'ям.

    Додавання коментаря

    Ім'я:*
    E-Mail:*
    Коментар:
    Введіть два слова, показані на зображенні: *
     
      

    BLIBL-створити сайт безкоштовно