Зробити стартовою  |  Додати в вибране
 
Пошук по сайту:  
  логін: пароль:  
    Реєстрація на сайті   Нагадати пароль?    

Видавництво Симфонія | Книжкова фабрика

akords.org » Б » Бумбокс » Квіти в волоссі (2 варіант)
Знайти необхідні акорди

Бумбокс - Квіти в волоссі (2 варіант)  Акорди, табулатура

Вступ:  Hm/H Hm/A# Hm/A Hm/G (x2)

Hm/H
Вона носила квіти в волоссі
Hm/A#
І ними грався він і ще вітер
Hm/A
Здавалося давно вже дорослі
Hm/G
Але кохали щиро мов діти

Відчинені серця щирі очі
Таких не так багато є в світі
Лилися сльози щастя щоночі
Обіцянки назавжди любити

Будиночок на розі двох вулиць
Паркан плющем осіннім завитий
Здавалося дощі схаменулись
Здавалося завжди буде літо

Лише один дзвінок телефону
І варто тільки їм захотіти
Повіяло теплом з-за кордону
А отже неодмінно летіти

Приспів:
Hm/H Hm/A
Не обіцяй назавжди
Hm/G# Hm/G Hm/F# ...
Не обіцяй навічно
Де твоє моє завтра
У скронях вітер свище
Не обіцяй навіщо
Не обіцяй не треба
Залежить час найближчий
Та не завжди від тебе

І раптом все змінилось навколо
Проблеми ціни сни сподівання
Роз'їхалися як діти в школу
Що першим було стало останнім

Їй у Варшавські спальні райони
Йому Москву бетоном залити
Але кохання у таксофонах
Приречене не довго прожити

Куди ведуть строкаті дороги
Чому ви заблукали у світі
Вас сотні тисячі вас мільйони
В Ізраїлі Канаді на Кріті

Є спогади про те як було все
Надії є на те як все буде
Нас доля стрімко течією несе
Бо ми є не титани ми люди

Приспів.

Вона носила квіти в волоссі
І ними грався він і ще вітер
Здавалося давно вже дорослі
Але кохали щиро мов діти


-----------------------------
Табулатура основної теми,
адаптована для однієї 6-струнної гітари
Автор: bohdanko (pisni.org.ua)
Доповнив: shandor (pisni.org.ua)


E||-------------------------|------------------------|
H||-------------------------|----------------7-------|
G||*------------------------|-------------------7----|
D||*-----4-----0-------4----|-----4-----0------------|
A||---2-----2-------2-------|--1-----1---------------|
E||-------------------------|------------------------|


------------------------|----------------12--------|
------------------------|--------------------12----|
------------------------|--------------------------|
-----4-----0-------4----|-----4-----0--------------|
--0-----0-------0-------|--------------------------|
------------------------|--3-----3-----------------|


------------------------|----------------------7--|
------------------------|----------------7--------|
------------------------|-------------------7-----|
-----4-----0-------4----|-----4-----0-------------|
--2-----2-------2-------|--1-----1----------------|
------------------------|-------------------------|

2x
------------------------|----------------12---------||
------------------------|--------------------12-----||
------------------------|--------------------------*||
-----4-----0-------4----|-----4-----0--------------*||
--0-----0-------0-------|---------------------------||
------------------------|--3-----3------------------||


---------------------------|--------------------------|
---------2h3------2h3------|--------2--------------3--|
*-----4---------------4----|-----4-----4-----4--------|
*--------------------------|--------------------------|
---2-----------0-----------|--------------------------|
---------------------------|--4-----------3-----2-----|


---------------------------|---------------------------||
--------2h3------2h3-5-----|--------3--------3-----2---||
-----4------------------4--|-----4-----4--------------*||
---------------------------|--------------------------*||
--2-----------0------------|---------------------------||
---------------------------|--4-----------3-----2------||

-----------------------------
|  акорди, навчання, відео  |
|     http://akords.org     |
-----------------------------

 (голосів: 4)
   Інші пісні:
  • Він чекає на неї (2 варіант)
  • Він чекає на неї
  • Не бійся жити
  • Так просто
  • Квіти в волоссі
  •  
    Шановний відвідувач, Ви зайшли на сайт як незареєстрований користувач. Ми рекомендуємо Вам реєструватися або зайти на сайт під своїм ім'ям.

    Додавання коментаря

    Ім'я:*
    E-Mail:*
    Коментар:
    Введіть два слова, показані на зображенні: *
     
      

    BLIBL-створити сайт безкоштовно