|  
 
:  
  : :  
      ?    

  |

akords.org » » » (2 )

- (2 ) 

Hm
Rif1
E|--------------|
B|---3----------|
G|-----4----2-4-|
D|--------------|
A|-2------------|
E|--------------|

Rif2
E|--------------|
B|---3------2---|
G|-----4------4-|
D|--------------|
A|-2------------|
E|--------------|

Rif3
E|--------------|
B|---3----------|
G|-----4----2-4-|
D|--------------|
A|-2------------|
E|--------------|

Rif4
E|--------------|
B|---3------2-3-|
G|-----4--------|
D|--------------|
A|-2------------|
E|--------------|

:
HmA
E|--2-----2---|E|--0-----0---|
B|--3-----3---|B|--2-----2---|
G|--4-----4---|G|--2-----2---|
D|------------|D|------------|
A|--2-----2---|A|--0-----0---|
E|------------|E|------------|




Rif1
 󠺠
Rif2
,堳䳠
Rif3
,?,
Rif4

-
᳠......
5-
?,.

,
ͳ,
,,

:
HmA
ߠ\',-
HmA
,-
HmA
,
HmA
,
,

,
,



.......-࠳
,
\'
,,
쳺,
,

,
ͳ,
,,

:
ߠ\',-
,..
,
,
,

,
,

-----------------------------
|  , ,   |
|     http://akords.org     |
-----------------------------

 (: 3)
    :
  • '
  •  
    , . '.

    ':*
    E-Mail:*
    :
    , : *
     
      

    BLIBL-