|  
 
:  
  : :  
      ?    

  |

akords.org » » »

-   ,


Intro-solo:
|C|Am|F|G
e|----------0------------0-----------1-----------1------
B|--------1------------1---1-------1---1-------0---0----
G|------0------------2-------2---2-------2---0-------0--
D|------------------------------------------------------
A|--3---------3-2-0------------------------3------------
E|-----------------------------1------------------------
|C|Am|F|G
----------0------------0---------1------1--0------------|
--------1------------1---1-------1------0--1------------|
------0------------2-------2---2------0----0------------|
-------------------------------------------2------------|
--3---------3-2-0------------3------3------3------------|
--------------------------------------------------------|
()
__________________________________________________________
CAm
\',,
FG
ߠ
CAmFG
,,
CAmFG
Գ-,
CAmFGC
,....

:
CAmFG
,,.
,,.
,,.
,,.

*

,
󠳠.
,\',
-.

.

-e
.
ѳ-⠳,,,
,᳠?

.

-----------------------------
|  , ,   |
|     http://akords.org     |
-----------------------------

 (: 2)
    :
  • (2 )
  • (3 )
  • -
  • -
  •  
    , . '.

    ':*
    E-Mail:*
    :
    , : *
     
      

    BLIBL-