|  
 
:  
  : :  
      ?    

  |

akords.org » » »

-  


EmEmGAm/C
4-------------------------0-------------0------
5|----2-0-3-2-0-2---0-2-3-2-0-----3-2---3-2-3-0-2-3---3-2--
6|-0--------------0-----------0-3--------------------------

2-.
.
EmEmGAm/C
5|-------2-------------2-------------5-------0-----3------
6|-0-------------0-------------3--------------------------


00-16
4



01-14
42



01-51
Em
ߠ
G Am

Em
-,
GC
,
Em
...


02-16
2+2



02-39

-


Em
...



03-10
GAm/CEm

GF#G
,
CEm
--
GF#F#G
03-33
(G)* F#GEm

(Em)* F#G

(G)* F#GEm

(Em)* F#GF#GEm


*-,


04-05
4+2



04-52
ߠ,

Ƞ
,-
,
,,
,

...



05-41
2+

06-04
,,

ߠ Em
...




06-35

,
--
06-59







07-37
3
4|-----2-4-------2-4-5--------2-4-------2-4-5-----5-----2---
5|---2---------2------------2---------2---------------------
6|-0--------------------------------------------------------

3,+2-젠-2




08-24
+2+:

1|-0-2-0-3---0-2-0-3s5s3----0-2-0-3--5-3-2-0---7-5-3-0----0-2-0-3---7-5-3-0-




08-56
+2+:

3|---0-2-0-------0-4-2---4-2--------- 1
4|-4-------4-2-4-------------4-2-----




09-13
,-



09-19

,
--
09-43





10-07
F#G
F#GEm 4

-----------------------------
|  , ,   |
|     http://akords.org     |
-----------------------------

 (: 0)
    :
  • (2 )
  • (2 )
  •  
    , . '.

    ':*
    E-Mail:*
    :
    , : *
     
      

    BLIBL-