Зробити стартовою  |  Додати в вибране
 
Пошук по сайту:  
  логін: пароль:  
    Реєстрація на сайті   Нагадати пароль?    

Видавництво Симфонія | Книжкова фабрика

akords.org » Б » Борзов Найк » Последняя песня о любви
Знайти необхідні акорди

Борзов Найк - Последняя песня о любви  Табулатура

b -  bend
br - bend and release

E------------------------------------------|
B--3b5--3br5-------------3b5--3b5----------|
G-------------5--5----5------------5-------|
D------------------------------------------|
A------------------------------------------|          Все повтоpить 4
E------------------------------------------|                pаза

E-----5------------------------------------|
B-3/5--------------------------------------|
G--------7--5--7----7b9-7b9--7--5----------|
D-----------------------------------7--7---|
A------------------------------------------|
E------------------------------------------|

-----------------------------
|  акорди, навчання, відео  |
|     http://akords.org     |
-----------------------------

 (голосів: 0)
   Інші пісні:
  • Happiness Is A Warm Gun
  • Down Payment Blues
  • Happiness Is A Warm Gun 5
  • Hall Of The Mountain King
  • Tomorrows Dream
  •  
    Шановний відвідувач, Ви зайшли на сайт як незареєстрований користувач. Ми рекомендуємо Вам реєструватися або зайти на сайт під своїм ім'ям.

    Додавання коментаря

    Ім'я:*
    E-Mail:*
    Коментар:
    Введіть два слова, показані на зображенні: *
     
      

    BLIBL-створити сайт безкоштовно