|  
 
:  
  : :  
      ?    

  |

akords.org » » » (2 )

- (2 )  ,

e|-1---1-0---0---1---1-0---0---3---3-0---0---3---3-0---0--
B|---3-----3---3---3-----3---3---3-----3---3---2-----2---2

intro:

AmAsus2AmAsus2DmE-2

e|-1---1-0-1-0--1---1-0-1-0-----3---3-0-3-0---3---3-0-3-0
B|---3------------3---------------3-------------2--------

1:
Am
,,
DmE
,
Am
,,
DmG7
,
C

DmE
,
Am
,
FE


2:

,,


,

,

Ƞ

solo:-(,!

3:

ߠ
,
,


 
DmE

DmE
Ƞ.
A
ߠ...

Asus2-Am2-


H(2,:GoReX):AmAmDmE

Am
E/--------0--------------------0-------------------------------
B/-6---6-------6------6----6-------6-------------------------
G/---7------7----7-------7------7----7-----------------------
D/--------------------------------------------------------------
A/--------------------------------------------------------------
E/---------------------------------------------------------------

Dm
E/--------0--------------------0-------------------------------
B/-8---8-------8------8----8-------8-------------------------
G/---7------7----7-------7------7----7-----------------------
D/--------------------------------------------------------------
A/--------------------------------------------------------------
E/--------------------------------------------------------------

-----------------------------
|  , ,   |
|     http://akords.org     |
-----------------------------

 (: 0)
    :
  • I Need You 2
  • ! (2 )
  • (7 )
  •  
    , . '.

    ':*
    E-Mail:*
    :
    , : *
     
      

    BLIBL-