Зробити стартовою  |  Додати в вибране
 
Пошук по сайту:  
  логін: пароль:  
    Реєстрація на сайті   Нагадати пароль?    

Видавництво Симфонія | Книжкова фабрика

akords.org » Б » Борзов Найк » Лошадка (4 варіант)
Знайти необхідні акорди

Борзов Найк - Лошадка (4 варіант)  Табулатура

Подобрал Николай Спиридонов. г.Самара. 



2:5057/53.17@fidonet.org

dr_reset@samtel.ru





1)-12-12-10-10-8------- \\

2)---------------9----- / 3 раза





1)-11-11-10-10-8--------\\

2)---------------9------/ 2 раза





1)-11-11-10-10-8--------\\

2)---------------6------/ 1 раз 



1)-----5-6-5------------\\

2)---6-------6-6--------| 1 раз

3)-5--------------------/

-----------------------------
|  акорди, навчання, відео  |
|     http://akords.org     |
-----------------------------

 (голосів: 0)
   Інші пісні:
  • Айседора
  • Розовые очки (2 варіант)
  • Лошадка (3 варіант)
  • Белые рубашки (2 варіант)
  • Руки из карманов (2 варіант)
  •  
    Шановний відвідувач, Ви зайшли на сайт як незареєстрований користувач. Ми рекомендуємо Вам реєструватися або зайти на сайт під своїм ім'ям.

    Додавання коментаря

    Ім'я:*
    E-Mail:*
    Коментар:
    Введіть два слова, показані на зображенні: *
     
      

    BLIBL-створити сайт безкоштовно