|  
 
:  
  : :  
      ?    

  |

akords.org » » » (3 )

- (3 ) 

92001-19:41

.

E-mail():malkov_vlad@mtu-net.ru

.(095)596-00-84



:



,.



(..2-5[175..])



E||------------------------------|------------------------------|

B||--17--17--15--15--------------|--17--17--15--15--------------|

G||------------------17----------|------------------17--14------|

D||----------------------17------|------------------------------|

A||------------------------------|------------------------------|

E||------------------------------|------------------------------|







------------------------------|------------------------------|

--17--17--15--15--------------|--17--17--15--15--------------|

------------------17--14------|------------------17----------|

------------------------------|----------------------18------|

------------------------------|------------------------------|

------------------------------|------------------------------|







------------------------------|------------------------------|

--16--16--15--15--------------|--16--16--15--15--------------|

------------------17----------|------------------17----------|

----------------------18------|----------------------15------|

------------------------------|------------------------------|

------------------------------|------------------------------|







------------------------------|----------12--13--12------------||

--17--17--15--15--------------|------13--------------13--13----||

------------------17----------|--12----------------------------||

----------------------17------|--------------------------------||

------------------------------|--------------------------------||

------------------------------|--------------------------------||





:



CCAmAm

ߠ

G#G#FG

pyypy

ߠ

Ƞyyyp







pppy

p



ߠypyp

p

ߠyp

Hy



:



ߠ

pyypy

ߠ

Ƞyyyp



ߠyyyy

10yy

yp

Hp







.!

-----------------------------
|  , ,   |
|     http://akords.org     |
-----------------------------

 (: 0)
    :
  • (2 )
  • (4 )
  •  
    , . '.

    ':*
    E-Mail:*
    :
    , : *
     
      

    BLIBL-