Зробити стартовою  |  Додати в вибране
 
Пошук по сайту:  
  логін: пароль:  
    Реєстрація на сайті   Нагадати пароль?    

Видавництво Симфонія | Книжкова фабрика

akords.org » Б » Би-2 » И корабль плывет (2 варіант)
Знайти необхідні акорди

Би-2 - И корабль плывет (2 варіант)  Табулатура

Аккорды:   Cm G  Cm G  Fm D# G
В припеве: G# A# G Cm G# A# G G# G

Вступление:
e|-------------------------------------------------------------|
b|-------------------------------------------------------------|
g|------8-10----------------------8-8-10-----------------------|
d|-8-10--------------8-8-8-10-10----------------8-8-8-10-10----|
a|-----------10-10----------------------10-10------------------|

e|-------------------------------------------------------------|
b|-------------------------------------------------------------|
g|-8-8-10-----------------7-7-10-10~---------------------------|
d|--------------8-8-8-9-9--------------------------------------|
a|--------10-10------------------------------------------------|

Соло:
e|-----11-13-15----------------------------------8----8-10-15--|
b|-13------------8-9-8---------------------9----9---9----------|
g|----------------------8--------------------10----------------|
d|------------------------10-10-10-10-9--9---------------------|
a|-------------------------------------10----------------------|

e|-----------------------------------------------6-8---8-11-10-|
b|-------------------9-8---------------------8-9-----9---------|
g|---------8-10-8-10---------------8-10---10-------------------|
d|----8-10-------------------8-10-------8----------------------|
a|-10-------------------8-10-----------------------------------|

e|-15-16-15-16-15-16-15-16----6-8------------------------------|

-----------------------------
|  акорди, навчання, відео  |
|     http://akords.org     |
-----------------------------

 (голосів: 0)
   Інші пісні:
  • И корабль плывет
  • Русалки
  • Ушедшим Слишком Рано (3 варіант)
  • Летучий Фрегат (2 варіант)
  • Летучий Фрегат
  •  
    Шановний відвідувач, Ви зайшли на сайт як незареєстрований користувач. Ми рекомендуємо Вам реєструватися або зайти на сайт під своїм ім'ям.

    Додавання коментаря

    Ім'я:*
    E-Mail:*
    Коментар:
    Введіть два слова, показані на зображенні: *
     
      

    BLIBL-створити сайт безкоштовно