|  
 
:  
  : :  
      ?    

  |

akords.org » » »

-  

...



1|-----------------------------------------------------

2|---2---4-1---4---6-2---6---7-4---6-2---4-1-------1---

3|---------------------------------------------2-3-----

4|-----------------------------------------------------

5|-----------------------------------------------------

6|-----------------------------------------------------



...()



Am#Dm#F

1|---1(6)---2(6)---1(8)-----

2|---2(6)---4(7)---1(10)----

3|---3(6)---3(8)---2(10)----

4|---3(8)---1(8)---3(10)----

5|---1(8)---1(6)---3(8)-----

6|---1(6)---1(6)---1(8)-----



Am#Dm#

,.

FAm#

ߠ,?.

Am#Dm#

.ߠ.

FAm#

?

Am#Dm#

,,,.

FAm#

-,.

Am#Dm#

,.

FAm#

,.

Am#Dm#

,ࠠ

FAm#

,,...

-----------------------------
|  , ,   |
|     http://akords.org     |
-----------------------------

 (: 0)
    :
  • 25
  •  
    , . '.

    ':*
    E-Mail:*
    :
    , : *
     
      

    BLIBL-