|  
 
:  
  : :  
      ?    

  |

akords.org » » »

-  

:OlegGashouk(2:5005/26.41)

Amfill

1|--------------------------------|-------------------|
2|-------------------5-3-----1----|-3-3-3-1-----------|
3|--------------3-2-------2-----3-|---------3-2-0-3-2-|
4|---------5-3--------------------|-------------------|
5|--0-7-5-------------------------|-------------------|
6|--------------------------------|-------------------|

1|--------------------------------|-3-1-0----------1-0-------|
2|-------------------5-3------1---|-------3------------3-2-3-|
3|--------------3-2-------2-3---3-|---------2-2--2-----------|
4|---------5-3--------------------|--------------------------|
5|--0-7-5-------------------------|--------------------------|
6|--------------------------------|--------------------------|
|2


intro:AmfillDmGCEAmDmAmEAm

I.
AmfillDmG
yp
GCEAm
,,,py
AmDm
,p,py
DmAmEAm
yp.

II.
AmADm
,p,,p
H(7)E
Ƞyp,pypyy
AmfillDm
,,,py
AmEAm
yp.

I.
yp

Ƞy
yp.

II.
y,yp
Hp
Hyy
yp.

II.
y,yp
Hp
Hyy
AmEAm
yp
AmEAm
yp
AmEAm
yp...

-----------------------------
|  , ,   |
|     http://akords.org     |
-----------------------------

 (: 0)
    :
  • (2 )
  • ( , )
  •  
    , . '.

    ':*
    E-Mail:*
    :
    , : *
     
      

    BLIBL-