Зробити стартовою  |  Додати в вибране
 
Пошук по сайту:  
  логін: пароль:  
    Реєстрація на сайті   Нагадати пароль?    

Видавництво Симфонія | Книжкова фабрика

akords.org » A » Avril Lavigne » Im With You
Знайти необхідні акорди

Avril Lavigne - Im With You  табулатура

this song is live in the LBC radio, this song come whith the DVD "My World"
(esta cancion es en vivo en LBC radio, esta cancion viene con el DVD "My World")

----------------------------
| / slide |
| h hammer-on |
| p pull-off |
| ~ vibrato |
| + harmonic |
| x Mute note |
| b Bend |
| . Let ring for a moment |
----------------------------

chords
G A7sus4 C Em D X Asus2
__oo__/ xo____/ ___o_o/ o__ooo/ xxo___/ oooooo/
1 |||||| 1 |||||| 1 ||||o| 1 |||||| 1 |||||| ||||||
|o|||| ||oo|| ||o||| |oo||| |||o|o ||||||
o|||oo ||||oo oo|||| |||||| ||||o| ||||||
|||||| |||||| |||||| |||||| |||||| ||||||


intro

acustic guitar: G A7sus4 C


G A7sus4 C G A7sus4 C G A7sus4 C G A7sus4 C
1/--3-----------------------------------------------------------------------------------/
2/--3-----------------------------------------------------------------------------------/
3/--0-------------4b-2-4~~--------------4/7~~-------------4-2-4-----------0-------------/
4/--0-----------------------------------------------------------------------------------/
5/--2-----------------------------------------------------------------------------------/
6/--3-----------------------------------------------------------------------------------/



(this part the elctric guitar play only in G, the other chords is for the acustic)
(esta parte la electrica toca solo en sol, las otras notas son para la acustica)

Em C Em C X Asus2
I'm standing on the bridge I'm waiting in the dark I thought that you'd be here by now
Em C
There's nothing but the rain No footsteps on the ground
Em C
I'm listening but there's no sound


Pre-chorus (here the acustic dont play anymore in all song, just play the electric guitar)
(aca la acustica desaparece por toda la cancion, solo toca la electrica)

D C
Isn't anyone trying to find me
D C
Won't somebody come take me home


Chorus


G A7sus4 C G A7sus4 C
It's a damn cold night Trying to figure out this life
G A7sus4 C
Won't you take me by the hand take me somewhere new
Em D C
I don't know who you are but I

I'm with you I'm with you
1/---------------------------------7.-7-7-4-4-6-/
2/---------------------------------8.-8-8-5-5-7-/
3/-0/12-12-12~.-11-11-7~-5/7-7-7/5--------------/
4/----------------------------------------------/
5/----------------------------------------------/
6/----------------------------------------------/



(in this part now no play anymore the acustic, play just the electric in G)
(en esta parte ahora no toca mas la acustica, toca solamente la electrica en sol)

G
I'm looking for a place I'm searching for a face Is anybody here I know
G
Cause nothing's going right And everything's a mess
G
And no one likes to be alone


Pre-chorus

D C
Isn't anyone trying to find me
D C
Won't somebody come take me home


Chorus

G A7sus4 C G A7sus4 C
It's a damn cold night Trying to figure out this life
G A7sus4 C
Won't you take me by the hand take me somewhere new
Em D C
I don't know who you are but I

I'm with you I'm with you
1/---------------------------------7.-7-7-4-4-6-/
2/---------------------------------8.-8-8-5-5-7-/
3/-0/12-12-12~.-11-11-7~-5/7-7-7/5--------------/
4/----------------------------------------------/
5/----------------------------------------------/
6/----------------------------------------------/

D C D C
Oh, why is everything so confusing Maybe I'm just out of my mind
D C Bm D
Yeah yeah yeah yeah yeah Yeah yeah yeah yeah Yeah


G A7sus4 C G A7sus4 C
It's a damn cold night Trying to figure out this life
G A7sus4 C
Won't you take me by the hand take me somewhere new
Em D C
I don't know who you are but I
G A7sus4 C G A7sus4 C
I'm with you I'm with you
G A7sus4 C
Take me by the hand take me somewhere new
Em D C
I don't know who you are but I
G A7sus4 C G A7sus4 C
I'm with you I'm with you
G A7sus4 C
Take me by the hand take me somewhere new
Em D C
I don't know who you are but I


I'm with you I'm with you
1/---------------------------------7.-7-7-4-4-6-/
2/---------------------------------8.-8-8-5-5-7-/
3/-0/12-12-12~.-11-11-7~-5/7-7-7/5--------------/
4/----------------------------------------------/
5/----------------------------------------------/
6/----------------------------------------------/

I'm with you
1/-----------3-/
2/-----------3-/
3/-----------0-/
4/-----------0-/
5/-----------2-/
6/-----------3-/


|--------------------------------------------------------|
|--------------->skaterboi133@hotmail.com<---------------|
|--------------------------------------------------------|

-----------------------------
|  акорди, навчання, відео  |
|     http://akords.org     |
-----------------------------

 (голосів: 0)
   Інші пісні:
  • No One Else Comes Close 4
  • I Want To Tell You
  • A7sus4
  • Shes Leaving Home
  • Across The Universe 5
  •  
    Шановний відвідувач, Ви зайшли на сайт як незареєстрований користувач. Ми рекомендуємо Вам реєструватися або зайти на сайт під своїм ім'ям.

    Додавання коментаря

    Ім'я:*
    E-Mail:*
    Коментар:
    Введіть два слова, показані на зображенні: *
     
      

    BLIBL-створити сайт безкоштовно